  0
SECTION
  2
HEADER
  9
$ACADVER
  1
AC1009
  9
$INSBASE
 10
0.0
 20
0.0
 30
0.0
  9
$EXTMIN
 10
-1.850393713000138
 20
-0.8661417379998965
 30
0.0
  9
$EXTMAX
 10
1.850393713000025
 20
3.0806618464273581
 30
0.0
  9
$LIMMIN
 10
0.0
 20
0.0
  9
$LIMMAX
 10
297.0
 20
210.0
  9
$ORTHOMODE
 70
     1
  9
$REGENMODE
 70
     1
  9
$FILLMODE
 70
     1
  9
$QTEXTMODE
 70
     0
  9
$MIRRTEXT
 70
     0
  9
$DRAGMODE
 70
     2
  9
$LTSCALE
 40
0.25
  9
$OSMODE
 70
     8
  9
$ATTMODE
 70
     1
  9
$TEXTSIZE
 40
0.156
  9
$TRACEWID
 40
0.05
  9
$TEXTSTYLE
  7
ROMANS
  9
$CLAYER
  8
0
  9
$CELTYPE
  6
BYLAYER
  9
$CECOLOR
 62
   256
  9
$DIMSCALE
 40
1.0
  9
$DIMASZ
 40
0.1
  9
$DIMEXO
 40
0.05
  9
$DIMDLI
 40
0.5
  9
$DIMRND
 40
0.0
  9
$DIMDLE
 40
0.0
  9
$DIMEXE
 40
0.1
  9
$DIMTP
 40
0.1
  9
$DIMTM
 40
0.1
  9
$DIMTXT
 40
0.12
  9
$DIMCEN
 40
0.0
  9
$DIMTSZ
 40
0.0
  9
$DIMTOL
 70
     0
  9
$DIMLIM
 70
     0
  9
$DIMTIH
 70
     1
  9
$DIMTOH
 70
     1
  9
$DIMSE1
 70
     0
  9
$DIMSE2
 70
     0
  9
$DIMTAD
 70
     0
  9
$DIMZIN
 70
     7
  9
$DIMBLK
  1

  9
$DIMASO
 70
     1
  9
$DIMSHO
 70
     1
  9
$DIMPOST
  1

  9
$DIMAPOST
  1
mm
  9
$DIMALT
 70
     0
  9
$DIMALTD
 70
     2
  9
$DIMALTF
 40
25.399999999999999
  9
$DIMLFAC
 40
1.0
  9
$DIMTOFL
 70
     0
  9
$DIMTVP
 40
0.0
  9
$DIMTIX
 70
     0
  9
$DIMSOXD
 70
     0
  9
$DIMSAH
 70
     0
  9
$DIMBLK1
  1

  9
$DIMBLK2
  1

  9
$DIMSTYLE
  2
AM_ANSI
  9
$DIMCLRD
 70
   256
  9
$DIMCLRE
 70
   256
  9
$DIMCLRT
 70
   256
  9
$DIMTFAC
 40
0.71
  9
$DIMGAP
 40
0.06
  9
$LUNITS
 70
     2
  9
$LUPREC
 70
     4
  9
$SKETCHINC
 40
0.1
  9
$FILLETRAD
 40
3.0
  9
$AUNITS
 70
     0
  9
$AUPREC
 70
     0
  9
$MENU
  1
.
  9
$ELEVATION
 40
0.0
  9
$PELEVATION
 40
0.0
  9
$THICKNESS
 40
0.0
  9
$LIMCHECK
 70
     0
  9
$BLIPMODE
 70
     0
  9
$CHAMFERA
 40
0.0
  9
$CHAMFERB
 40
0.0
  9
$SKPOLY
 70
     1
  9
$TDCREATE
 40
2450788.5131729161
  9
$TDUPDATE
 40
2453313.6157542942
  9
$TDINDWG
 40
8.9135613425999995
  9
$TDUSRTIMER
 40
8.9135611574000002
  9
$USRTIMER
 70
     1
  9
$ANGBASE
 50
0.0
  9
$ANGDIR
 70
     0
  9
$PDMODE
 70
     0
  9
$PDSIZE
 40
0.0
  9
$PLINEWID
 40
0.0
  9
$COORDS
 70
     0
  9
$SPLFRAME
 70
     0
  9
$SPLINETYPE
 70
     6
  9
$SPLINESEGS
 70
     8
  9
$ATTDIA
 70
     0
  9
$ATTREQ
 70
     1
  9
$HANDLING
 70
 12289
  9
$HANDSEED
  5
389BE
  9
$SURFTAB1
 70
     6
  9
$SURFTAB2
 70
     6
  9
$SURFTYPE
 70
     6
  9
$SURFU
 70
     6
  9
$SURFV
 70
     6
  9
$UCSNAME
  2

  9
$UCSORG
 10
0.0
 20
0.0
 30
0.0
  9
$UCSXDIR
 10
1.0
 20
0.0
 30
0.0
  9
$UCSYDIR
 10
0.0
 20
1.0
 30
0.0
  9
$PUCSNAME
  2

  9
$PUCSORG
 10
0.0
 20
0.0
 30
0.0
  9
$PUCSXDIR
 10
1.0
 20
0.0
 30
0.0
  9
$PUCSYDIR
 10
0.0
 20
1.0
 30
0.0
  9
$USERI1
 70
     0
  9
$USERI2
 70
     0
  9
$USERI3
 70
     0
  9
$USERI4
 70
     0
  9
$USERI5
 70
     0
  9
$USERR1
 40
0.0
  9
$USERR2
 40
0.0
  9
$USERR3
 40
0.0
  9
$USERR4
 40
0.0
  9
$USERR5
 40
0.0
  9
$WORLDVIEW
 70
     1
  9
$SHADEDGE
 70
     3
  9
$SHADEDIF
 70
    70
  9
$TILEMODE
 70
     1
  9
$MAXACTVP
 70
    48
  9
$PLIMCHECK
 70
     0
  9
$PEXTMIN
 10
1.0000000000000000E+020
 20
1.0000000000000000E+020
 30
1.0000000000000000E+020
  9
$PEXTMAX
 10
-1.0000000000000000E+020
 20
-1.0000000000000000E+020
 30
-1.0000000000000000E+020
  9
$PLIMMIN
 10
0.0
 20
0.0
  9
$PLIMMAX
 10
12.0
 20
9.0
  9
$UNITMODE
 70
     0
  9
$VISRETAIN
 70
     0
  9
$PLINEGEN
 70
     0
  9
$PSLTSCALE
 70
     1
  0
ENDSEC
  0
SECTION
  2
TABLES
  0
TABLE
  2
VPORT
 70
     9
  0
VPORT
  2
*ACTIVE
 70
     0
 10
0.0
 20
0.0
 11
1.0
 21
1.0
 12
-679.95163383408783
 22
3157.1752477786349
 13
0.0
 23
0.0
 14
0.01
 24
0.01
 15
350.0
 25
350.0
 16
0.0
 26
0.0
 36
1.0
 17
679.95163383408772
 27
-3156.0679877244211
 37
0.0
 40
7.974291398861169
 41
1.8430034129692829
 42
50.0
 43
0.0
 44
0.0
 50
0.0
 51
0.0
 71
     0
 72
 20000
 73
     1
 74
     0
 75
     0
 76
     0
 77
     0
 78
     0
  0
ENDTAB
  0
TABLE
  2
LTYPE
 70
    10
  0
LTYPE
  2
CONTINUOUS
 70
     0
  3
Solid line
 72
    65
 73
     0
 40
0.0
  0
LTYPE
  2
CENTER
 70
     0
  3
____ _ ____ _ ____ _ ____ _ ____ _ ____ _ ____ 
 72
    65
 73
     4
 40
2.0
 49
1.25
 49
-0.25
 49
0.25
 49
-0.25
  0
LTYPE
  2
HIDDEN
 70
     0
  3
__ __ __ __ __ __ __ __ __ __ __ __ __ __ __ __
 72
    65
 73
     2
 40
0.375
 49
0.25
 49
-0.125
  0
LTYPE
  2
PHANTOM2
 70
     0
  3
___ _ _ ___ _ _ ___ _ _ ___ _ _ ___ _ _ ___ _ _
 72
    65
 73
     6
 40
1.25
 49
0.625
 49
-0.125
 49
0.125
 49
-0.125
 49
0.125
 49
-0.125
  0
LTYPE
  2
AMCONSTR
 70
     0
  3
_______________________
 72
    65
 73
     2
 40
9999.0
 49
9999.0
 49
0.0
  0
LTYPE
  2
HIDDEN2
 70
     0
  3
_ _ _ _ _ _ _ _ _ _ _ _ _ _ _ _ _ _ _ _ _ _ _ _
 72
    65
 73
     2
 40
0.1875
 49
0.125
 49
-0.0625
  0
LTYPE
  2
CENTER2
 70
     0
  3
___ _ ___ _ ___ _ ___ _ ___ _ ___ _ ___ _ ___ _
 72
    65
 73
     4
 40
1.125
 49
0.75
 49
-0.125
 49
0.125
 49
-0.125
  0
LTYPE
  2
AMZIGZAG2
 70
     0
  3
/\/-/\/-/\/-/\/-/\/-/\/
 72
    65
 73
     2
 40
0.4401
 49
0.0001
 49
-0.4400000000000002
  0
LTYPE
  2
ACANSTGB
 70
     0
  3
__ . . __ . .
 72
    65
 73
     6
 40
0.35433070866
 49
0.15748031496
 49
-0.03937007874
 49
0.03937007874
 49
-0.03937007874
 49
0.03937007874
 49
-0.03937007874
  0
LTYPE
  2
ACANSTGL
 70
     0
  3
_ _ _ _ _
 72
    65
 73
     2
 40
0.11811023622
 49
0.07874015748
 49
-0.03937007874
  0
ENDTAB
  0
TABLE
  2
LAYER
 70
     3
  0
LAYER
  2
0
 70
     0
 62
     7
  6
CONTINUOUS
  0
LAYER
  2
DEFPOINTS
 70
     0
 62
     7
  6
CONTINUOUS
  0
ENDTAB
  0
TABLE
  2
STYLE
 70
     5
  0
STYLE
  2
STANDARD
 70
     0
 40
0.0
 41
1.0
 50
0.0
 71
     0
 42
600.0
  3
txt
  4

  0
STYLE
  2
ROMANS
 70
     0
 40
0.0
 41
1.0
 50
0.0
 71
     0
 42
0.156
  3
romans.shx
  4

  0
STYLE
  2

 70
     1
 40
0.0
 41
1.0
 50
0.0
 71
     0
 42
0.156
  3
ltypeshp.shx
  4

  0
STYLE
  2
ACANSTS
 70
     0
 40
1.0
 41
1.0
 50
0.0
 71
     0
 42
0.156
  3
romans.shx
  4

  0
STYLE
  2
ACANSGDT
 70
     0
 40
0.0
 41
1.0
 50
0.0
 71
     0
 42
0.156
  3
amgdtans.shx
  4

  0
ENDTAB
  0
TABLE
  2
VIEW
 70
     0
  0
ENDTAB
  0
TABLE
  2
UCS
 70
     0
  0
ENDTAB
  0
TABLE
  2
APPID
 70
    16
  0
APPID
  2
ACAD
 70
     0
  0
APPID
  2
AD_DRAW
 70
     0
  0
APPID
  2
DESIGNERASSEMBLIES
 70
     0
  0
APPID
  2
MCAD_NO_VIS
 70
     0
  0
APPID
  2
ASURF_PCURVE_APPNAME
 70
     0
  0
APPID
  2
GENIUS_GENDIM_13
 70
     0
  0
APPID
  2
GENIUS_GENDTOL_13
 70
     0
  0
APPID
  2
GENIUS_GE3DTOL_13
 70
     0
  0
APPID
  2
ACAD_TEMP_GRAPHIC
 70
     0
  0
APPID
  2
ACATTRIBSERVICES
 70
     0
  0
APPID
  2
ACADM_DIM_EDIT
 70
     0
  0
APPID
  2
AD_SKETCHDIM
 70
     0
  0
APPID
  2
GENIUS_GENDIMSH_14
 70
     0
  0
APPID
  2
AMG_3D2D_5_0
 70
     0
  0
APPID
  2
AMDT_DM_ADJ
 70
     0
  0
APPID
  2
DCO15
 70
     0
  0
ENDTAB
  0
TABLE
  2
DIMSTYLE
 70
     7
  0
DIMSTYLE
  2
AM_ANSI
 70
     0
  3

  4
mm
  5

  6

  7

 40
1.0
 41
0.1
 42
0.05
 43
0.5
 44
0.1
 45
0.0
 46
0.0
 47
0.1
 48
0.1
140
0.12
141
0.0
142
0.0
143
25.399999999999999
144
1.0
145
0.0
146
0.71
147
0.06
 71
     0
 72
     0
 73
     1
 74
     1
 75
     0
 76
     0
 77
     0
 78
     7
170
     0
171
     2
172
     0
173
     0
174
     0
175
     0
176
   256
177
   256
178
   256
  0
DIMSTYLE
  2
AM_ANSI$3
 70
     0
  3

  4
mm
  5

  6

  7

 40
1.0
 41
0.1
 42
0.05
 43
0.5
 44
0.1
 45
0.0
 46
0.0
 47
0.1
 48
0.1
140
0.12
141
0.0
142
0.0
143
25.399999999999999
144
1.0
145
0.0
146
0.71
147
0.06
 71
     0
 72
     0
 73
     1
 74
     1
 75
     0
 76
     0
 77
     0
 78
     7
170
     0
171
     2
172
     0
173
     0
174
     0
175
     0
176
   256
177
   256
178
   256
  0
DIMSTYLE
  2
AM_ANSI$4
 70
     0
  3

  4
mm
  5

  6

  7

 40
1.0
 41
0.1
 42
0.05
 43
0.5
 44
0.1
 45
0.0
 46
0.0
 47
0.1
 48
0.1
140
0.12
141
0.0
142
0.0
143
25.399999999999999
144
1.0
145
0.0
146
0.71
147
0.06
 71
     0
 72
     0
 73
     1
 74
     1
 75
     0
 76
     0
 77
     0
 78
     7
170
     0
171
     2
172
     0
173
     0
174
     0
175
     0
176
   256
177
   256
178
   256
  0
DIMSTYLE
  2
AM_ANSI$6
 70
     0
  3

  4
mm
  5

  6

  7

 40
1.0
 41
0.1
 42
0.05
 43
0.5
 44
0.1
 45
0.0
 46
0.0
 47
0.1
 48
0.1
140
0.12
141
0.0
142
0.0
143
25.399999999999999
144
1.0
145
0.0
146
0.71
147
0.06
 71
     0
 72
     0
 73
     1
 74
     1
 75
     0
 76
     0
 77
     0
 78
     7
170
     0
171
     2
172
     0
173
     0
174
     0
175
     0
176
   256
177
   256
178
   256
  0
DIMSTYLE
  2
AM_ANSI$7
 70
     0
  3

  4
mm
  5

  6

  7

 40
1.0
 41
0.1
 42
0.05
 43
0.5
 44
0.1
 45
0.0
 46
0.0
 47
0.1
 48
0.1
140
0.12
141
0.0
142
0.0
143
25.399999999999999
144
1.0
145
0.0
146
0.71
147
0.06
 71
     0
 72
     0
 73
     1
 74
     1
 75
     0
 76
     0
 77
     0
 78
     7
170
     0
171
     2
172
     0
173
     0
174
     0
175
     0
176
   256
177
   256
178
   256
  0
DIMSTYLE
  2
AM_ANSI$SF
 70
     0
  3

  4
mm
  5

  6

  7

 40
1.0
 41
0.1
 42
0.05
 43
0.5
 44
0.1
 45
0.0
 46
0.0
 47
0.1
 48
0.1
140
0.12
141
0.0
142
0.0
143
25.399999999999999
144
1.0
145
0.0
146
0.71
147
0.06
 71
     0
 72
     0
 73
     1
 74
     1
 75
     1
 76
     1
 77
     0
 78
     7
170
     0
171
     2
172
     0
173
     0
174
     0
175
     0
176
   256
177
   256
178
     2
  0
DIMSTYLE
  2
AM_ANSI$SH
 70
     0
  3

  4
mm
  5

  6
GENAXEH
  7

 40
1.0
 41
0.1
 42
0.05
 43
0.5
 44
0.1
 45
0.0
 46
0.0
 47
0.1
 48
0.1
140
0.12
141
0.0
142
0.0
143
25.399999999999999
144
1.0
145
0.0
146
0.71
147
0.06
 71
     0
 72
     0
 73
     1
 74
     1
 75
     1
 76
     1
 77
     0
 78
     7
170
     0
171
     2
172
     0
173
     1
174
     0
175
     0
176
   256
177
   256
178
     2
  0
ENDTAB
  0
ENDSEC
  0
SECTION
  2
BLOCKS
  0
BLOCK
  8
0
  2
$MODEL_SPACE
 70
     0
 10
0.0
 20
0.0
 30
0.0
  3
$MODEL_SPACE
  1

  0
ENDBLK
  5
6
  8
0
  0
BLOCK
 67
     1
  8
0
  2
$PAPER_SPACE
 70
     0
 10
0.0
 20
0.0
 30
0.0
  3
$PAPER_SPACE
  1

  0
ENDBLK
  5
9
 67
     1
  8
0
  0
BLOCK
  8
0
  2
GENAXEH
 70
     0
 10
0.0
 20
0.0
 30
0.0
  3
GENAXEH
  1

  0
LINE
  5
38799
  8
0
 10
-1.0
 20
0.0
 30
0.0
 11
1.0
 21
0.0
 31
0.0
  0
ENDBLK
  5
3879A
  8
0
  0
ENDSEC
  0
SECTION
  2
ENTITIES
  0
LINE
  5
37DA8
  8
0
  6
CONTINUOUS
 10
1.1417322910000389
 20
2.8050712934259532
 30
0.0
 11
-1.1417322910001531
 21
2.8050712934259532
 31
0.0
  0
LINE
  5
37DA9
  8
0
  6
CONTINUOUS
 10
1.122047251500021
 20
3.0806618464271192
 30
0.0
 11
-1.1220472515001341
 21
3.0806618464271192
 31
0.0
  0
CIRCLE
  5
37DAB
  8
0
  6
CONTINUOUS
 10
1.102362211999889
 20
2.3523153849273508
 30
0.0
 40
0.2559055135
  0
LINE
  5
37DAC
  8
0
  6
CONTINUOUS
 10
1.338582685999995
 20
-0.1574803159996918
 30
0.0
 11
0.8661417380000102
 21
-0.1574803159996918
 31
0.0
  0
LINE
  5
37DAE
  8
0
  6
CONTINUOUS
 10
1.7913385944998479
 20
-0.8661417379998965
 30
0.0
 11
0.0
 21
-0.8661417379998965
 31
0.0
  0
LINE
  5
37DAF
  8
0
  6
CONTINUOUS
 10
-1.1417322910001531
 20
1.899559476427384
 30
0.0
 11
1.1417322910000389
 21
1.899559476427384
 31
0.0
  0
LINE
  5
37DB0
  8
0
  6
CONTINUOUS
 10
-1.1220472515001341
 20
1.623968923427128
 30
0.0
 11
1.122047251500021
 21
1.623968923427128
 31
0.0
  0
LINE
  5
37DBA
  8
0
  6
CONTINUOUS
 10
-1.7913385944999609
 20
-0.8661417379998965
 30
0.0
 11
0.0
 21
-0.8661417379998965
 31
0.0
  0
ARC
  5
37DBB
  8
0
 10
-1.1220472515001341
 20
2.3523153849273508
 30
0.0
 40
0.7283464615000002
 50
90.0
 51
270.0
  0
ARC
  5
37DBE
  8
0
 10
-1.692913396999983
 20
-0.4658680711186208
 30
0.0
 40
0.118110237
 50
317.48955292199861
 51
0.0
  0
LINE
  5
37DC0
  8
0
 10
-1.7913385944999609
 20
-0.7480315009997867
 30
0.0
 11
-1.6058479467953919
 21
-0.5456780671406705
 31
0.0
  0
POINT
  5
37DC1
  8
0
  6
BYBLOCK
 10
-1.7913385944999609
 20
-0.8661417379998965
 30
0.0
  0
POINT
  5
37DC2
  8
0
  6
BYBLOCK
 10
-1.85039371300013
 20
-0.8070866194998416
 30
0.0
  0
ARC
  5
37DC3
  8
0
 10
-1.7913385944999609
 20
-0.8070866194998416
 30
0.0
 40
0.0590551185
 50
90.000000000020734
 51
270.0
  0
LINE
  5
37DE6
  8
0
  6
CONTINUOUS
 10
-1.338582685999995
 20
-0.1574803159996918
 30
0.0
 11
-0.8661417380000102
 21
-0.1574803159996918
 31
0.0
  0
ARC
  5
37DED
  8
0
 10
-1.5157480415000459
 20
-0.3740157505008028
 30
0.0
 40
0.0590551185
 50
90.0
 51
180.0
  0
LINE
  5
37DEE
  8
0
 10
-1.574803159999987
 20
-0.3740157505008028
 30
0.0
 11
-1.574803159999987
 21
-0.4658680711186208
 31
0.0
  0
LINE
  5
37DF1
  8
0
  6
CONTINUOUS
 10
-1.3582677255000131
 20
-0.3149606319998384
 30
0.0
 11
-1.3582677255000131
 21
-0.1771653554997101
 31
0.0
  0
LINE
  5
37DF2
  8
0
  6
CONTINUOUS
 10
-1.338582685999995
 20
-0.1574803159996918
 30
0.0
 11
-1.3582677255000131
 21
-0.1771653554997101
 31
0.0
  0
LINE
  5
37DFE
  8
0
  6
CONTINUOUS
 10
-0.8464566984999919
 20
-0.3149606319998384
 30
0.0
 11
-0.8464566984999919
 21
-0.1771653554997101
 31
0.0
  0
LINE
  5
37E00
  8
0
  6
CONTINUOUS
 10
-0.8464566984999919
 20
-0.1771653554997101
 30
0.0
 11
-0.8661417380000102
 21
-0.1574803159996918
 31
0.0
  0
ARC
  5
37E02
  8
0
  6
CONTINUOUS
 10
-1.1220472515001341
 20
2.3523153849273508
 30
0.0
 40
0.4527559085
 50
90.0
 51
270.0
  0
CIRCLE
  5
37E03
  8
0
  6
CONTINUOUS
 10
-1.1023622120000021
 20
2.3523153849273508
 30
0.0
 40
0.1712598436499964
  0
CIRCLE
  5
37E04
  8
0
  6
CONTINUOUS
 10
-1.1023622120000021
 20
2.3523153849273508
 30
0.0
 40
0.1417322843999964
  0
CIRCLE
  5
37E05
  8
0
  6
CONTINUOUS
 10
-1.1023622120000021
 20
2.3523153849273508
 30
0.0
 40
0.2559055135
  0
POINT
  5
37E07
  8
0
  6
BYBLOCK
 10
-1.1023622120000021
 20
2.0964098714271131
 30
0.0
  0
LINE
  5
37E11
  8
0
  6
CONTINUOUS
 10
0.3937007900000253
 20
0.0
 30
0.0
 11
0.0
 21
0.0
 31
0.0
  0
LINE
  5
37E2A
  8
0
  6
CONTINUOUS
 10
-0.393700790000139
 20
0.0
 30
0.0
 11
0.0
 21
0.0
 31
0.0
  0
LINE
  5
37E33
  8
0
  6
CONTINUOUS
 10
-0.4133858295001574
 20
-0.3149606319998384
 30
0.0
 11
-0.4133858295001574
 21
-0.0196850395000183
 31
0.0
  0
LINE
  5
37E34
  8
0
  6
CONTINUOUS
 10
-0.393700790000139
 20
0.0
 30
0.0
 11
-0.4133858295001574
 21
-0.0196850395000183
 31
0.0
  0
LINE
  5
37E55
  8
0
  6
CONTINUOUS
 10
1.5157480415000459
 20
-0.3149606319998384
 30
0.0
 11
-1.5157480415000459
 21
-0.3149606319998384
 31
0.0
  0
LINE
  5
37E5E
  8
0
  6
CONTINUOUS
 10
0.3937007900000253
 20
0.0
 30
0.0
 11
0.4133858295000437
 21
-0.0196850395000183
 31
0.0
  0
LINE
  5
37E5F
  8
0
  6
CONTINUOUS
 10
0.4133858295000437
 20
-0.3149606319998384
 30
0.0
 11
0.4133858295000437
 21
-0.0196850395000183
 31
0.0
  0
LINE
  5
37E64
  8
0
  6
CONTINUOUS
 10
0.8464566984999919
 20
-0.1771653554997101
 30
0.0
 11
0.8661417380000102
 21
-0.1574803159996918
 31
0.0
  0
LINE
  5
37E65
  8
0
  6
CONTINUOUS
 10
0.8464566984999919
 20
-0.3149606319998384
 30
0.0
 11
0.8464566984999919
 21
-0.1771653554997101
 31
0.0
  0
CIRCLE
  5
37E66
  8
0
  6
CONTINUOUS
 10
0.0
 20
2.3523153849273508
 30
0.0
 40
0.3425196873000018
  0
CIRCLE
  5
37E67
  8
0
  6
CONTINUOUS
 10
0.0
 20
2.3523153849273508
 30
0.0
 40
0.3031496083000018
  0
CIRCLE
  5
37E68
  8
0
  6
CONTINUOUS
 10
0.0
 20
2.3523153849273508
 30
0.0
 40
0.4133858295000001
  0
ARC
  5
37E6B
  8
0
 10
1.122047251500021
 20
2.3523153849273508
 30
0.0
 40
0.7283464615000002
 50
270.0
 51
90.0
  0
LINE
  5
37E70
  8
0
 10
1.7913385944998479
 20
-0.7480315009997867
 30
0.0
 11
1.6058479467953919
 21
-0.5456780671406705
 31
0.0
  0
POINT
  5
37EA1
  8
0
  6
BYBLOCK
 10
1.102362211999889
 20
1.623968923427128
 30
0.0
  0
ARC
  5
37EAD
  8
0
 10
1.69291339699987
 20
-0.4658680711186208
 30
0.0
 40
0.118110237
 50
180.00000000000091
 51
222.51044707800131
  0
ARC
  5
37EAE
  8
0
 10
1.5157480415000459
 20
-0.3740157505008028
 30
0.0
 40
0.0590551185
 50
0.0
 51
90.0
  0
LINE
  5
37EAF
  8
0
 10
1.574803159999987
 20
-0.3740157505008028
 30
0.0
 11
1.574803159999987
 21
-0.4658680711186208
 31
0.0
  0
LINE
  5
37EB2
  8
0
  6
CONTINUOUS
 10
1.338582685999995
 20
-0.1574803159996918
 30
0.0
 11
1.3582677255000131
 21
-0.1771653554997101
 31
0.0
  0
LINE
  5
37EB3
  8
0
  6
CONTINUOUS
 10
1.3582677255000131
 20
-0.3149606319998384
 30
0.0
 11
1.3582677255000131
 21
-0.1771653554997101
 31
0.0
  0
ARC
  5
37EB6
  8
0
 10
1.7913385944998479
 20
-0.8070866194998416
 30
0.0
 40
0.0590551185
 50
270.0
 51
89.999999999986969
  0
POINT
  5
37EB7
  8
0
  6
BYBLOCK
 10
1.8503937130000161
 20
-0.8070866194998416
 30
0.0
  0
POINT
  5
37EB8
  8
0
  6
BYBLOCK
 10
1.7913385944998479
 20
-0.8661417379998965
 30
0.0
  0
ARC
  5
37EBA
  8
0
  6
CONTINUOUS
 10
1.122047251500021
 20
2.3523153849273508
 30
0.0
 40
0.4527559085
 50
270.0
 51
90.0
  0
POINT
  5
37EBB
  8
0
  6
BYBLOCK
 10
1.102362211999889
 20
3.0806618464271192
 30
0.0
  0
CIRCLE
  5
37EBC
  8
0
  6
CONTINUOUS
 10
1.102362211999889
 20
2.3523153849273508
 30
0.0
 40
0.1712598436499964
  0
CIRCLE
  5
37EBD
  8
0
  6
CONTINUOUS
 10
1.102362211999889
 20
2.3523153849273508
 30
0.0
 40
0.1417322843999964
  0
POINT
  5
37EBF
  8
0
  6
BYBLOCK
 10
1.102362211999889
 20
2.0964098714271131
 30
0.0
  0
POINT
  5
3866B
  8
0
  6
BYBLOCK
 10
1.7970245340602551
 20
-0.8661417379998965
 30
0.0
  0
POINT
  5
3866C
  8
0
  6
BYBLOCK
 10
0.3937007900000253
 20
0.0
 30
0.0
  0
LINE
  5
38682
  8
0
 10
-1.791338594500075
 20
-0.7480315009997867
 30
0.0
 11
1.7913385944998479
 21
-0.7480315009997867
 31
0.0
  0
LINE
  5
38684
  8
0
 10
-1.3582677255000131
 20
-0.1771653554997101
 30
0.0
 11
-0.8464566984999919
 21
-0.1771653554997101
 31
0.0
  0
LINE
  5
38685
  8
0
 10
-0.4133858295001574
 20
-0.0196850395000183
 30
0.0
 11
0.4133858295000437
 21
-0.0196850395000183
 31
0.0
  0
LINE
  5
38686
  8
0
 10
0.8464566984999919
 20
-0.1771653554997101
 30
0.0
 11
1.3582677255000131
 21
-0.1771653554997101
 31
0.0
  0
LINE
  5
38687
  8
0
 10
-1.5828376298157989
 20
-0.5086857492797208
 30
0.0
 11
1.574803159999987
 21
-0.5086857492797208
 31
0.0
  0
ENDSEC
  0
EOF
