  0
SECTION
  2
HEADER
  9
$ACADVER
  1
AC1009
  9
$INSBASE
 10
-3.7220439885024912
 20
-4.53803984751596
 30
0.0
  9
$EXTMIN
 10
-0.5905511849999812
 20
-1.4566929229999921
 30
0.0
  9
$EXTMAX
 10
0.5905511850000096
 20
0.2755905530000007
 30
0.0
  9
$LIMMIN
 10
0.0
 20
0.0
  9
$LIMMAX
 10
297.0
 20
210.0
  9
$ORTHOMODE
 70
     0
  9
$REGENMODE
 70
     1
  9
$FILLMODE
 70
     1
  9
$QTEXTMODE
 70
     0
  9
$MIRRTEXT
 70
     1
  9
$DRAGMODE
 70
     2
  9
$LTSCALE
 40
0.1
  9
$OSMODE
 70
     8
  9
$ATTMODE
 70
     1
  9
$TEXTSIZE
 40
0.156
  9
$TRACEWID
 40
1.0
  9
$TEXTSTYLE
  7
ROMANS
  9
$CLAYER
  8
0
  9
$CELTYPE
  6
BYLAYER
  9
$CECOLOR
 62
   256
  9
$DIMSCALE
 40
0.25
  9
$DIMASZ
 40
0.1
  9
$DIMEXO
 40
0.05
  9
$DIMDLI
 40
0.5
  9
$DIMRND
 40
0.0
  9
$DIMDLE
 40
0.0
  9
$DIMEXE
 40
0.1
  9
$DIMTP
 40
0.1
  9
$DIMTM
 40
0.1
  9
$DIMTXT
 40
0.12
  9
$DIMCEN
 40
0.0
  9
$DIMTSZ
 40
0.0
  9
$DIMTOL
 70
     0
  9
$DIMLIM
 70
     0
  9
$DIMTIH
 70
     1
  9
$DIMTOH
 70
     1
  9
$DIMSE1
 70
     0
  9
$DIMSE2
 70
     0
  9
$DIMTAD
 70
     0
  9
$DIMZIN
 70
     7
  9
$DIMBLK
  1

  9
$DIMASO
 70
     1
  9
$DIMSHO
 70
     1
  9
$DIMPOST
  1

  9
$DIMAPOST
  1
mm
  9
$DIMALT
 70
     0
  9
$DIMALTD
 70
     2
  9
$DIMALTF
 40
25.399999999999999
  9
$DIMLFAC
 40
1.0
  9
$DIMTOFL
 70
     0
  9
$DIMTVP
 40
0.0
  9
$DIMTIX
 70
     0
  9
$DIMSOXD
 70
     0
  9
$DIMSAH
 70
     0
  9
$DIMBLK1
  1

  9
$DIMBLK2
  1

  9
$DIMSTYLE
  2
AM_ANSI
  9
$DIMCLRD
 70
   256
  9
$DIMCLRE
 70
   256
  9
$DIMCLRT
 70
   256
  9
$DIMTFAC
 40
0.71
  9
$DIMGAP
 40
0.06
  9
$LUNITS
 70
     2
  9
$LUPREC
 70
     4
  9
$SKETCHINC
 40
1.0
  9
$FILLETRAD
 40
0.2
  9
$AUNITS
 70
     0
  9
$AUPREC
 70
     0
  9
$MENU
  1
.
  9
$ELEVATION
 40
0.0
  9
$PELEVATION
 40
0.0
  9
$THICKNESS
 40
0.0
  9
$LIMCHECK
 70
     0
  9
$BLIPMODE
 70
     0
  9
$CHAMFERA
 40
0.5
  9
$CHAMFERB
 40
0.5
  9
$SKPOLY
 70
     0
  9
$TDCREATE
 40
2451673.763809259
  9
$TDUPDATE
 40
2453313.6122674299
  9
$TDINDWG
 40
0.9280745255
  9
$TDUSRTIMER
 40
0.9280745255
  9
$USRTIMER
 70
     1
  9
$ANGBASE
 50
0.0
  9
$ANGDIR
 70
     0
  9
$PDMODE
 70
    34
  9
$PDSIZE
 40
0.0
  9
$PLINEWID
 40
0.0
  9
$COORDS
 70
     0
  9
$SPLFRAME
 70
     0
  9
$SPLINETYPE
 70
     6
  9
$SPLINESEGS
 70
     8
  9
$ATTDIA
 70
     0
  9
$ATTREQ
 70
     1
  9
$HANDLING
 70
 12289
  9
$HANDSEED
  5
3BDA
  9
$SURFTAB1
 70
     6
  9
$SURFTAB2
 70
     6
  9
$SURFTYPE
 70
     6
  9
$SURFU
 70
     6
  9
$SURFV
 70
     6
  9
$UCSNAME
  2

  9
$UCSORG
 10
0.0
 20
0.0
 30
0.0
  9
$UCSXDIR
 10
1.0
 20
0.0
 30
0.0
  9
$UCSYDIR
 10
0.0
 20
1.0
 30
0.0
  9
$PUCSNAME
  2

  9
$PUCSORG
 10
0.0
 20
0.0
 30
0.0
  9
$PUCSXDIR
 10
1.0
 20
0.0
 30
0.0
  9
$PUCSYDIR
 10
0.0
 20
1.0
 30
0.0
  9
$USERI1
 70
     0
  9
$USERI2
 70
     0
  9
$USERI3
 70
     0
  9
$USERI4
 70
     0
  9
$USERI5
 70
     0
  9
$USERR1
 40
0.0
  9
$USERR2
 40
0.0
  9
$USERR3
 40
0.0
  9
$USERR4
 40
0.0
  9
$USERR5
 40
0.0
  9
$WORLDVIEW
 70
     1
  9
$SHADEDGE
 70
     3
  9
$SHADEDIF
 70
    70
  9
$TILEMODE
 70
     1
  9
$MAXACTVP
 70
    48
  9
$PLIMCHECK
 70
     0
  9
$PEXTMIN
 10
1.0000000000000000E+020
 20
1.0000000000000000E+020
 30
1.0000000000000000E+020
  9
$PEXTMAX
 10
-1.0000000000000000E+020
 20
-1.0000000000000000E+020
 30
-1.0000000000000000E+020
  9
$PLIMMIN
 10
0.0
 20
0.0
  9
$PLIMMAX
 10
420.0
 20
297.0
  9
$UNITMODE
 70
     0
  9
$VISRETAIN
 70
     1
  9
$PLINEGEN
 70
     0
  9
$PSLTSCALE
 70
     1
  0
ENDSEC
  0
SECTION
  2
TABLES
  0
TABLE
  2
VPORT
 70
     4
  0
VPORT
  2
*ACTIVE
 70
     0
 10
0.0
 20
0.0
 11
1.0
 21
1.0
 12
50.690185526249579
 22
-57.360114130326131
 13
0.0
 23
0.0
 14
10.0
 24
10.0
 15
10.0
 25
10.0
 16
0.0
 26
0.0
 36
1.0
 17
-50.690185526249572
 27
56.769562945326129
 37
0.0
 40
3.4999799021055931
 41
1.8430034129692829
 42
50.0
 43
0.0
 44
0.0
 50
0.0
 51
0.0
 71
     0
 72
 20000
 73
     1
 74
     0
 75
     0
 76
     0
 77
     0
 78
     0
  0
ENDTAB
  0
TABLE
  2
LTYPE
 70
    13
  0
LTYPE
  2
CONTINUOUS
 70
     0
  3
Solid line
 72
    65
 73
     0
 40
0.0
  0
LTYPE
  2
CENTER
 70
     0
  3
____ _ ____ _ ____ _ ____ _ ____ _ ____ _ ____ 
 72
    65
 73
     4
 40
2.0
 49
1.25
 49
-0.25
 49
0.25
 49
-0.25
  0
LTYPE
  2
PHANTOM
 70
     0
  3
Phantom ______  __  __  ______  __  __  ______
 72
    65
 73
     6
 40
63.5
 49
31.75
 49
-6.3499999999999979
 49
6.3499999999999979
 49
-6.3499999999999979
 49
6.3499999999999979
 49
-6.3499999999999979
  0
LTYPE
  2
HIDDEN
 70
     0
  3
__ __ __ __ __ __ __ __ __ __ __ __ __ __ __ __
 72
    65
 73
     2
 40
0.375
 49
0.25
 49
-0.125
  0
LTYPE
  2
PHANTOM2
 70
     0
  3
___ _ _ ___ _ _ ___ _ _ ___ _ _ ___ _ _ ___ _ _
 72
    65
 73
     6
 40
1.25
 49
0.625
 49
-0.125
 49
0.125
 49
-0.125
 49
0.125
 49
-0.125
  0
LTYPE
  2
AMCONSTR
 70
     0
  3
_______________________
 72
    65
 73
     2
 40
9999.0
 49
9999.0
 49
0.0
  0
LTYPE
  2
HIDDEN2
 70
     0
  3
_ _ _ _ _ _ _ _ _ _ _ _ _ _ _ _ _ _ _ _ _ _ _ _
 72
    65
 73
     2
 40
0.1875
 49
0.125
 49
-0.0625
  0
LTYPE
  2
CENTER2
 70
     0
  3
___ _ ___ _ ___ _ ___ _ ___ _ ___ _ ___ _ ___ _
 72
    65
 73
     4
 40
1.125
 49
0.75
 49
-0.125
 49
0.125
 49
-0.125
  0
LTYPE
  2
AMZIGZAG2
 70
     0
  3
/\/-/\/-/\/-/\/-/\/-/\/
 72
    65
 73
     2
 40
0.4401
 49
0.0001
 49
-0.4400000000000002
  0
LTYPE
  2
ASULTYPE
 70
     0
  3
Solid line
 72
    65
 73
     2
 40
3.0
 49
2.5
 49
0.5
  0
LTYPE
  2
ASVLTYPE
 70
     0
  3
__ __ __ __ __ __ __ __ __ __ __ __ __ __ __ __ __ __ __ __ __
 72
    65
 73
     2
 40
0.75
 49
0.5
 49
-0.25
  0
LTYPE
  2
ACANSTGB
 70
     0
  3
__ . . __ . .
 72
    65
 73
     6
 40
0.35433070866
 49
0.15748031496
 49
-0.03937007874
 49
0.03937007874
 49
-0.03937007874
 49
0.03937007874
 49
-0.03937007874
  0
LTYPE
  2
ACANSTGL
 70
     0
  3
_ _ _ _ _
 72
    65
 73
     2
 40
0.11811023622
 49
0.07874015748
 49
-0.03937007874
  0
ENDTAB
  0
TABLE
  2
LAYER
 70
     3
  0
LAYER
  2
0
 70
     0
 62
     7
  6
CONTINUOUS
  0
LAYER
  2
DEFPOINTS
 70
     0
 62
     7
  6
CONTINUOUS
  0
ENDTAB
  0
TABLE
  2
STYLE
 70
     6
  0
STYLE
  2
STANDARD
 70
     0
 40
0.0
 41
1.0
 50
0.0
 71
     0
 42
2.5
  3
txt
  4

  0
STYLE
  2
ROMANS
 70
     0
 40
0.0
 41
1.0
 50
0.0
 71
     0
 42
0.156
  3
romans.shx
  4

  0
STYLE
  2
GHS
 70
     0
 40
0.0
 41
0.8
 50
0.0
 71
     0
 42
0.2
  3
romans.shx
  4
ghs.shx
  0
STYLE
  2

 70
     1
 40
0.0
 41
1.0
 50
0.0
 71
     0
 42
0.156
  3
ltypeshp.shx
  4

  0
STYLE
  2
ACANSTS
 70
     0
 40
1.0
 41
1.0
 50
0.0
 71
     0
 42
0.156
  3
romans.shx
  4

  0
STYLE
  2
ACANSGDT
 70
     0
 40
0.0
 41
1.0
 50
0.0
 71
     0
 42
0.156
  3
amgdtans.shx
  4

  0
ENDTAB
  0
TABLE
  2
VIEW
 70
     0
  0
ENDTAB
  0
TABLE
  2
UCS
 70
     0
  0
ENDTAB
  0
TABLE
  2
APPID
 70
    16
  0
APPID
  2
ACAD
 70
     0
  0
APPID
  2
AD_DRAW
 70
     0
  0
APPID
  2
DESIGNERASSEMBLIES
 70
     0
  0
APPID
  2
MCAD_NO_VIS
 70
     0
  0
APPID
  2
ASURF_PCURVE_APPNAME
 70
     0
  0
APPID
  2
GENIUS_GENDIM_13
 70
     0
  0
APPID
  2
GENIUS_GENDTOL_13
 70
     0
  0
APPID
  2
GENIUS_GE3DTOL_13
 70
     0
  0
APPID
  2
ACAD_TEMP_GRAPHIC
 70
     0
  0
APPID
  2
ACATTRIBSERVICES
 70
     0
  0
APPID
  2
ACADM_DIM_EDIT
 70
     0
  0
APPID
  2
AD_SKETCHDIM
 70
     0
  0
APPID
  2
GENIUS_GENDIMSH_14
 70
     0
  0
APPID
  2
AMG_3D2D_5_0
 70
     0
  0
APPID
  2
AMDT_DM_ADJ
 70
     0
  0
APPID
  2
DCO15
 70
     0
  0
ENDTAB
  0
TABLE
  2
DIMSTYLE
 70
     8
  0
DIMSTYLE
  2
STANDARD
 70
     0
  3

  4

  5

  6

  7

 40
1.0
 41
0.18
 42
0.0625
 43
0.38
 44
0.18
 45
0.0
 46
0.0
 47
0.0
 48
0.0
140
0.18
141
0.09
142
0.0
143
25.399999999999999
144
1.0
145
0.0
146
1.0
147
0.09
 71
     0
 72
     0
 73
     1
 74
     1
 75
     0
 76
     0
 77
     0
 78
     0
170
     0
171
     2
172
     0
173
     0
174
     0
175
     0
176
     0
177
     0
178
     0
  0
DIMSTYLE
  2
AM_ANSI
 70
     0
  3

  4
mm
  5

  6

  7

 40
0.25
 41
0.1
 42
0.05
 43
0.5
 44
0.1
 45
0.0
 46
0.0
 47
0.1
 48
0.1
140
0.12
141
0.0
142
0.0
143
25.399999999999999
144
1.0
145
0.0
146
0.71
147
0.06
 71
     0
 72
     0
 73
     1
 74
     1
 75
     0
 76
     0
 77
     0
 78
     7
170
     0
171
     2
172
     0
173
     0
174
     0
175
     0
176
   256
177
   256
178
   256
  0
DIMSTYLE
  2
AM_ANSI$3
 70
     0
  3

  4
mm
  5

  6

  7

 40
0.25
 41
0.1
 42
0.05
 43
0.5
 44
0.1
 45
0.0
 46
0.0
 47
0.1
 48
0.1
140
0.12
141
0.0
142
0.0
143
25.399999999999999
144
1.0
145
0.0
146
0.71
147
0.06
 71
     0
 72
     0
 73
     1
 74
     1
 75
     0
 76
     0
 77
     0
 78
     7
170
     0
171
     2
172
     0
173
     0
174
     0
175
     0
176
   256
177
   256
178
   256
  0
DIMSTYLE
  2
AM_ANSI$4
 70
     0
  3

  4
mm
  5

  6

  7

 40
0.25
 41
0.1
 42
0.05
 43
0.5
 44
0.1
 45
0.0
 46
0.0
 47
0.1
 48
0.1
140
0.12
141
0.0
142
0.0
143
25.399999999999999
144
1.0
145
0.0
146
0.71
147
0.06
 71
     0
 72
     0
 73
     1
 74
     1
 75
     0
 76
     0
 77
     0
 78
     7
170
     0
171
     2
172
     0
173
     0
174
     0
175
     0
176
   256
177
   256
178
   256
  0
DIMSTYLE
  2
AM_ANSI$6
 70
     0
  3

  4
mm
  5

  6

  7

 40
0.25
 41
0.1
 42
0.05
 43
0.5
 44
0.1
 45
0.0
 46
0.0
 47
0.1
 48
0.1
140
0.12
141
0.0
142
0.0
143
25.399999999999999
144
1.0
145
0.0
146
0.71
147
0.06
 71
     0
 72
     0
 73
     1
 74
     1
 75
     0
 76
     0
 77
     0
 78
     7
170
     0
171
     2
172
     0
173
     0
174
     0
175
     0
176
   256
177
   256
178
   256
  0
DIMSTYLE
  2
AM_ANSI$7
 70
     0
  3

  4
mm
  5

  6

  7

 40
0.25
 41
0.1
 42
0.05
 43
0.5
 44
0.1
 45
0.0
 46
0.0
 47
0.1
 48
0.1
140
0.12
141
0.0
142
0.0
143
25.399999999999999
144
1.0
145
0.0
146
0.71
147
0.06
 71
     0
 72
     0
 73
     1
 74
     1
 75
     0
 76
     0
 77
     0
 78
     7
170
     0
171
     2
172
     0
173
     0
174
     0
175
     0
176
   256
177
   256
178
   256
  0
DIMSTYLE
  2
AM_ANSI$SF
 70
     0
  3

  4
mm
  5

  6

  7

 40
1.0
 41
0.1
 42
0.05
 43
0.5
 44
0.1
 45
0.0
 46
0.0
 47
0.1
 48
0.1
140
0.12
141
0.0
142
0.0
143
25.399999999999999
144
1.0
145
0.0
146
0.71
147
0.06
 71
     0
 72
     0
 73
     1
 74
     1
 75
     1
 76
     1
 77
     0
 78
     7
170
     0
171
     2
172
     0
173
     0
174
     0
175
     0
176
   256
177
   256
178
     2
  0
DIMSTYLE
  2
AM_ANSI$SH
 70
     0
  3

  4
mm
  5

  6
GENAXEH
  7

 40
1.0
 41
0.1
 42
0.05
 43
0.5
 44
0.1
 45
0.0
 46
0.0
 47
0.1
 48
0.1
140
0.12
141
0.0
142
0.0
143
25.399999999999999
144
1.0
145
0.0
146
0.71
147
0.06
 71
     0
 72
     0
 73
     1
 74
     1
 75
     1
 76
     1
 77
     0
 78
     7
170
     0
171
     2
172
     0
173
     1
174
     0
175
     0
176
   256
177
   256
178
     2
  0
ENDTAB
  0
ENDSEC
  0
SECTION
  2
BLOCKS
  0
BLOCK
  8
0
  2
$MODEL_SPACE
 70
     0
 10
0.0
 20
0.0
 30
0.0
  3
$MODEL_SPACE
  1

  0
ENDBLK
  5
6
  8
0
  0
BLOCK
 67
     1
  8
0
  2
$PAPER_SPACE
 70
     0
 10
0.0
 20
0.0
 30
0.0
  3
$PAPER_SPACE
  1

  0
ENDBLK
  5
9
 67
     1
  8
0
  0
BLOCK
  8
0
  2
GENAXEH
 70
     0
 10
0.0
 20
0.0
 30
0.0
  3
GENAXEH
  1

  0
LINE
  5
3B51
  8
0
 10
-1.0
 20
0.0
 30
0.0
 11
1.0
 21
0.0
 31
0.0
  0
ENDBLK
  5
3B52
  8
0
  0
ENDSEC
  0
SECTION
  2
ENTITIES
  0
LINE
  5
2B54
  8
0
 10
0.0000000000000284
 20
-1.456692922999991
 30
0.0
 11
-0.5826771691999682
 21
-1.456692922999991
 31
0.0
  0
LINE
  5
2B5A
  8
0
 10
-0.4527559084999951
 20
-1.32874016625
 30
0.0
 11
0.0000000000000284
 21
-1.32874016625
 31
0.0
  0
LINE
  5
2B5B
  8
0
 10
-0.4527559084999951
 20
-0.6200787442499945
 30
0.0
 11
0.0000000000000284
 21
-0.6200787442499945
 31
0.0
  0
LINE
  5
2B5C
  8
0
 10
-0.4527559084999951
 20
-0.8562992182499868
 30
0.0
 11
0.0000000000000284
 21
-0.8562992182499868
 31
0.0
  0
LINE
  5
2B5D
  8
0
 10
-0.4527559084999951
 20
-1.0925196922500069
 30
0.0
 11
0.0000000000000284
 21
-1.0925196922500069
 31
0.0
  0
POLYLINE
  5
2B5E
  8
0
 66
     1
 10
0.0
 20
0.0
 30
0.0
  0
VERTEX
  5
3BA8
  8
0
 10
0.0000000000000284
 20
-0.5314960664999973
 30
0.0
  0
VERTEX
  5
3BA9
  8
0
 10
-0.5905511849999812
 20
-0.5314960664999973
 30
0.0
  0
VERTEX
  5
3BAA
  8
0
 10
-0.5905511849999812
 20
-0.4724409479999992
 30
0.0
  0
VERTEX
  5
3BAB
  8
0
 10
0.0000000000000284
 20
-0.4724409479999992
 30
0.0
  0
SEQEND
  5
3BAC
  8
0
  0
POLYLINE
  5
2B5F
  8
0
 66
     1
 10
0.0
 20
0.0
 30
0.0
  0
VERTEX
  5
3BAD
  8
0
 10
0.0000000000000284
 20
-0.9448818960000124
 30
0.0
  0
VERTEX
  5
3BAE
  8
0
 10
-0.5905511849999812
 20
-0.9448818960000124
 30
0.0
  0
VERTEX
  5
3BAF
  8
0
 10
-0.5905511849999812
 20
-1.0039370144999959
 30
0.0
  0
VERTEX
  5
3BB0
  8
0
 10
0.0000000000000284
 20
-1.0039370144999959
 30
0.0
  0
SEQEND
  5
3BB1
  8
0
  0
POLYLINE
  5
2B60
  8
0
 66
     1
 10
0.0
 20
0.0
 30
0.0
  0
VERTEX
  5
3BB2
  8
0
 10
0.0000000000000284
 20
-0.7086614219999916
 30
0.0
  0
VERTEX
  5
3BB3
  8
0
 10
-0.5905511849999812
 20
-0.7086614219999916
 30
0.0
  0
VERTEX
  5
3BB4
  8
0
 10
-0.5905511849999812
 20
-0.7677165404999898
 30
0.0
  0
VERTEX
  5
3BB5
  8
0
 10
0.0000000000000284
 20
-0.7677165404999898
 30
0.0
  0
SEQEND
  5
3BB6
  8
0
  0
POLYLINE
  5
2B61
  8
0
 66
     1
 10
0.0
 20
0.0
 30
0.0
  0
VERTEX
  5
3BB7
  8
0
 10
0.0000000000000284
 20
-1.2401574885000031
 30
0.0
  0
VERTEX
  5
3BB8
  8
0
 10
-0.5905511849999812
 20
-1.2401574885000031
 30
0.0
  0
VERTEX
  5
3BB9
  8
0
 10
-0.5905511849999812
 20
-1.1811023700000041
 30
0.0
  0
VERTEX
  5
3BBA
  8
0
 10
0.0000000000000284
 20
-1.1811023700000041
 30
0.0
  0
SEQEND
  5
3BBB
  8
0
  0
POLYLINE
  5
2B65
  8
0
 66
     1
 10
0.0
 20
0.0
 30
0.0
  0
VERTEX
  5
3BBC
  8
0
 10
0.0000000000000284
 20
-0.1968503949999984
 30
0.0
  0
VERTEX
  5
3BBD
  8
0
 10
-0.3937007899999685
 20
-0.1968503949999984
 30
0.0
  0
VERTEX
  5
3BBE
  8
0
 10
-0.3937007899999685
 20
-0.2913385845999983
 30
0.0
  0
VERTEX
  5
3BBF
  8
0
 10
0.0000000000000284
 20
-0.2913385845999983
 30
0.0
  0
SEQEND
  5
3BC0
  8
0
  0
LINE
  5
2B6A
  8
0
 10
-0.5511811059999731
 20
-0.4724409479999992
 30
0.0
 11
-0.4724409479999565
 21
-0.383858270250002
 31
0.0
  0
LINE
  5
2B6C
  8
0
 10
-0.5511811059999731
 20
-1.0039370144999959
 30
0.0
 11
-0.4601046624469803
 21
-1.0771796518696131
 31
0.0
  0
LINE
  5
2B6D
  8
0
 10
-0.5878225877288799
 20
-1.4428586393384959
 30
0.0
 11
-0.4601046624469803
 21
-1.3440802066304081
 31
0.0
  0
LINE
  5
2B6E
  8
0
 10
-0.5511811059999731
 20
-1.1811023700000041
 30
0.0
 11
-0.4601046624469803
 21
-1.107859732630416
 31
0.0
  0
LINE
  5
2B6F
  8
0
 10
-0.5511811059999731
 20
-1.2401574885000031
 30
0.0
 11
-0.4601046624469803
 21
-1.3134001258696051
 31
0.0
  0
ARC
  5
2B70
  8
0
 10
-0.5826771691999682
 20
-1.448818907199992
 30
0.0
 40
0.0078740158
 50
130.80359869476479
 51
269.99999999999812
  0
ARC
  5
2B71
  8
0
 10
-0.4724409479999565
 20
-1.32874016625
 30
0.0
 40
0.0196850395
 50
308.80584427074808
 51
51.194155729251911
  0
ARC
  5
2B72
  8
0
 10
-0.4724409479999565
 20
-1.0925196922500069
 30
0.0
 40
0.0196850395
 50
308.80584427074808
 51
51.194155729251911
  0
LINE
  5
2B73
  8
0
 10
-0.5511811059999731
 20
-0.7086614219999916
 30
0.0
 11
-0.4601046624469803
 21
-0.6354187846304029
 31
0.0
  0
LINE
  5
2B74
  8
0
 10
-0.5511811059999731
 20
-0.5314960664999973
 30
0.0
 11
-0.4601046624469803
 21
-0.6047387038696144
 31
0.0
  0
LINE
  5
2B75
  8
0
 10
-0.5511811059999731
 20
-0.7677165404999898
 30
0.0
 11
-0.4601046624469803
 21
-0.8409591778696068
 31
0.0
  0
LINE
  5
2B76
  8
0
 10
-0.5511811059999731
 20
-0.9448818960000124
 30
0.0
 11
-0.4601046624469803
 21
-0.8716392586304095
 31
0.0
  0
ARC
  5
2B77
  8
0
 10
-0.4724409479999565
 20
-0.8562992182499868
 30
0.0
 40
0.0196850395
 50
308.80584427074808
 51
51.194155729251911
  0
ARC
  5
2B78
  8
0
 10
-0.4724409479999565
 20
-0.6200787442499945
 30
0.0
 40
0.0196850395
 50
308.80584427074808
 51
51.194155729251911
  0
LINE
  5
2B7B
  8
0
 10
0.0000000000000284
 20
-0.383858270250002
 30
0.0
 11
-0.4724409479999565
 21
-0.383858270250002
 31
0.0
  0
LINE
  5
2C8B
  8
0
 10
0.5878225877289083
 20
-1.4428586393384959
 30
0.0
 11
0.4601046624471224
 21
-1.3440802066304081
 31
0.0
  0
LINE
  5
2C8C
  8
0
 10
0.0000000000000284
 20
-1.456692922999991
 30
0.0
 11
0.582677169200025
 21
-1.456692922999991
 31
0.0
  0
ARC
  5
2C8D
  8
0
 10
0.582677169200025
 20
-1.448818907199992
 30
0.0
 40
0.0078740158
 50
270.00000000000182
 51
49.196401305235113
  0
POLYLINE
  5
2C8E
  8
0
 66
     1
 10
0.0
 20
0.0
 30
0.0
  0
VERTEX
  5
3BC1
  8
0
 10
0.0000000000000284
 20
-0.7086614219999916
 30
0.0
  0
VERTEX
  5
3BC2
  8
0
 10
0.5905511850000096
 20
-0.7086614219999916
 30
0.0
  0
VERTEX
  5
3BC3
  8
0
 10
0.5905511850000096
 20
-0.7677165404999898
 30
0.0
  0
VERTEX
  5
3BC4
  8
0
 10
0.0000000000000284
 20
-0.7677165404999898
 30
0.0
  0
SEQEND
  5
3BC5
  8
0
  0
LINE
  5
2C8F
  8
0
 10
0.4527559085000235
 20
-1.32874016625
 30
0.0
 11
0.0000000000000284
 21
-1.32874016625
 31
0.0
  0
LINE
  5
2C90
  8
0
 10
0.4527559085000235
 20
-1.0925196922500069
 30
0.0
 11
0.0000000000000284
 21
-1.0925196922500069
 31
0.0
  0
LINE
  5
2C91
  8
0
 10
0.4527559085000235
 20
-0.8562992182499868
 30
0.0
 11
0.0000000000000284
 21
-0.8562992182499868
 31
0.0
  0
POLYLINE
  5
2C92
  8
0
 66
     1
 10
0.0
 20
0.0
 30
0.0
  0
VERTEX
  5
3BC6
  8
0
 10
0.0000000000000284
 20
-1.2401574885000031
 30
0.0
  0
VERTEX
  5
3BC7
  8
0
 10
0.5905511850000096
 20
-1.2401574885000031
 30
0.0
  0
VERTEX
  5
3BC8
  8
0
 10
0.5905511850000096
 20
-1.1811023700000041
 30
0.0
  0
VERTEX
  5
3BC9
  8
0
 10
0.0000000000000284
 20
-1.1811023700000041
 30
0.0
  0
SEQEND
  5
3BCA
  8
0
  0
POLYLINE
  5
2C93
  8
0
 66
     1
 10
0.0
 20
0.0
 30
0.0
  0
VERTEX
  5
3BCB
  8
0
 10
0.0000000000000284
 20
-0.9448818960000124
 30
0.0
  0
VERTEX
  5
3BCC
  8
0
 10
0.5905511850000096
 20
-0.9448818960000124
 30
0.0
  0
VERTEX
  5
3BCD
  8
0
 10
0.5905511850000096
 20
-1.0039370144999959
 30
0.0
  0
VERTEX
  5
3BCE
  8
0
 10
0.0000000000000284
 20
-1.0039370144999959
 30
0.0
  0
SEQEND
  5
3BCF
  8
0
  0
ARC
  5
2C94
  8
0
 10
0.4724409480000418
 20
-1.0925196922500069
 30
0.0
 40
0.0196850395
 50
128.80584427074811
 51
231.19415572925189
  0
LINE
  5
2C95
  8
0
 10
0.5511811060000298
 20
-1.2401574885000031
 30
0.0
 11
0.4601046624471224
 21
-1.3134001258696051
 31
0.0
  0
ARC
  5
2C96
  8
0
 10
0.4724409480000418
 20
-1.32874016625
 30
0.0
 40
0.0196850395
 50
128.80584427074811
 51
231.19415572925189
  0
LINE
  5
2C97
  8
0
 10
0.5511811060000298
 20
-1.1811023700000041
 30
0.0
 11
0.4601046624471224
 21
-1.107859732630416
 31
0.0
  0
LINE
  5
2C98
  8
0
 10
0.5511811060000298
 20
-0.9448818960000124
 30
0.0
 11
0.4601046624471224
 21
-0.8716392586304095
 31
0.0
  0
LINE
  5
2C99
  8
0
 10
0.5511811060000298
 20
-1.0039370144999959
 30
0.0
 11
0.4601046624471224
 21
-1.0771796518696131
 31
0.0
  0
LINE
  5
2C9A
  8
0
 10
0.5511811060000298
 20
-0.7677165404999898
 30
0.0
 11
0.4601046624471224
 21
-0.8409591778696068
 31
0.0
  0
ARC
  5
2C9B
  8
0
 10
0.4724409480000418
 20
-0.8562992182499868
 30
0.0
 40
0.0196850395
 50
128.80584427074811
 51
231.19415572925189
  0
LINE
  5
2C9C
  8
0
 10
0.4527559085000235
 20
-0.6200787442499945
 30
0.0
 11
0.0000000000000284
 21
-0.6200787442499945
 31
0.0
  0
LINE
  5
2C9D
  8
0
 10
0.0000000000000284
 20
-0.383858270250002
 30
0.0
 11
0.4724409480000418
 21
-0.383858270250002
 31
0.0
  0
POLYLINE
  5
2C9E
  8
0
 66
     1
 10
0.0
 20
0.0
 30
0.0
  0
VERTEX
  5
3BD0
  8
0
 10
0.0000000000000284
 20
-0.1968503949999984
 30
0.0
  0
VERTEX
  5
3BD1
  8
0
 10
0.3937007900000253
 20
-0.1968503949999984
 30
0.0
  0
VERTEX
  5
3BD2
  8
0
 10
0.3937007900000253
 20
-0.2913385845999983
 30
0.0
  0
VERTEX
  5
3BD3
  8
0
 10
0.0000000000000284
 20
-0.2913385845999983
 30
0.0
  0
SEQEND
  5
3BD4
  8
0
  0
POLYLINE
  5
2C9F
  8
0
 66
     1
 10
0.0
 20
0.0
 30
0.0
  0
VERTEX
  5
3BD5
  8
0
 10
0.0000000000000284
 20
-0.5314960664999973
 30
0.0
  0
VERTEX
  5
3BD6
  8
0
 10
0.5905511850000096
 20
-0.5314960664999973
 30
0.0
  0
VERTEX
  5
3BD7
  8
0
 10
0.5905511850000096
 20
-0.4724409479999992
 30
0.0
  0
VERTEX
  5
3BD8
  8
0
 10
0.0000000000000284
 20
-0.4724409479999992
 30
0.0
  0
SEQEND
  5
3BD9
  8
0
  0
LINE
  5
2CA0
  8
0
 10
0.5511811060000298
 20
-0.4724409479999992
 30
0.0
 11
0.4724409480000418
 21
-0.383858270250002
 31
0.0
  0
LINE
  5
2CA1
  8
0
 10
0.5511811060000298
 20
-0.5314960664999973
 30
0.0
 11
0.4601046624471224
 21
-0.6047387038696144
 31
0.0
  0
LINE
  5
2CA2
  8
0
 10
0.5511811060000298
 20
-0.7086614219999916
 30
0.0
 11
0.4601046624471224
 21
-0.6354187846304029
 31
0.0
  0
ARC
  5
2CA3
  8
0
 10
0.4724409480000418
 20
-0.6200787442499945
 30
0.0
 40
0.0196850395
 50
128.80584427074811
 51
231.19415572925189
  0
LINE
  5
2CA5
  8
0
 10
-0.3937007899999685
 20
-0.2913385845999983
 30
0.0
 11
-0.3937007899999685
 21
-0.383858270250002
 31
0.0
  0
LINE
  5
2CA6
  8
0
 10
0.3937007900000253
 20
-0.2913385845999983
 30
0.0
 11
0.3937007900000253
 21
-0.383858270250002
 31
0.0
  0
LINE
  5
2CA8
  8
0
 10
0.3937007900000253
 20
-0.2362204740000067
 30
0.0
 11
0.3937007900000253
 21
-0.039370078999994
 31
0.0
  0
LINE
  5
2CA9
  8
0
 10
-0.3937007899999685
 20
-0.2362204740000067
 30
0.0
 11
-0.3937007899999685
 21
-0.039370078999994
 31
0.0
  0
LINE
  5
2CAC
  8
0
 10
-0.2952755924999906
 20
0.0
 30
0.0
 11
0.295275592500019
 21
0.0
 31
0.0
  0
LINE
  5
2CAD
  8
0
 10
-0.1732283475999736
 20
0.2755905530000007
 30
0.0
 11
0.1732283476000305
 21
0.2755905530000007
 31
0.0
  0
LINE
  5
2CAE
  8
0
 10
0.1929133871000204
 20
0.0787401580000022
 30
0.0
 11
0.1929133871000204
 21
0.2559055134999966
 31
0.0
  0
LINE
  5
2CAF
  8
0
 10
-0.1929133870999635
 20
0.0787401580000022
 30
0.0
 11
-0.1929133870999635
 21
0.2559055134999966
 31
0.0
  0
LINE
  5
2CB0
  8
0
 10
0.1732283476000305
 20
0.0
 30
0.0
 11
0.1732283476000305
 21
0.2755905530000007
 31
0.0
  0
LINE
  5
2CB1
  8
0
 10
-0.1732283475999736
 20
0.0
 30
0.0
 11
-0.1732283475999736
 21
0.2755905530000007
 31
0.0
  0
LINE
  5
2CB2
  8
0
 10
-0.1929133870999635
 20
0.0787401580000022
 30
0.0
 11
0.1929133871000204
 21
0.0787401580000022
 31
0.0
  0
LINE
  5
2CB4
  8
0
 10
-0.1732283475999736
 20
0.2755905530000007
 30
0.0
 11
-0.1929133870999635
 21
0.2559055134999966
 31
0.0
  0
LINE
  5
2CB5
  8
0
 10
0.1732283476000305
 20
0.2755905530000007
 30
0.0
 11
0.1929133871000204
 21
0.2559055134999966
 31
0.0
  0
LINE
  5
2CB6
  8
0
 10
-0.1929133870999635
 20
0.2559055134999966
 30
0.0
 11
0.1929133871000204
 21
0.2559055134999966
 31
0.0
  0
LINE
  5
2CB8
  8
0
 10
-0.3937007899999685
 20
-0.039370078999994
 30
0.0
 11
0.3937007900000253
 21
-0.039370078999994
 31
0.0
  0
LINE
  5
2CBB
  8
0
 10
-0.2952755924999906
 20
0.0
 30
0.0
 11
-0.3937007899999685
 21
-0.039370078999994
 31
0.0
  0
LINE
  5
2CBC
  8
0
 10
0.295275592500019
 20
0.0
 30
0.0
 11
0.3937007900000253
 21
-0.039370078999994
 31
0.0
  0
LINE
  5
2CC1
  8
0
 10
0.1968503950000127
 20
-0.1771653554999943
 30
0.0
 11
-0.1968503949999842
 21
-0.1771653554999943
 31
0.0
  0
LINE
  5
2CC4
  8
0
 10
-0.1968503949999842
 20
-0.039370078999994
 30
0.0
 11
-0.1968503949999842
 21
-0.1771653554999943
 31
0.0
  0
LINE
  5
2CC5
  8
0
 10
0.1968503950000127
 20
-0.039370078999994
 30
0.0
 11
0.1968503950000127
 21
-0.1771653554999943
 31
0.0
  0
ENDSEC
  0
EOF
