  0
SECTION
  2
HEADER
  9
$ACADVER
  1
AC1009
  9
$INSBASE
 10
0.0
 20
0.0
 30
0.0
  9
$EXTMIN
 10
-0.433070868999991
 20
-0.3976377979000034
 30
0.0
  9
$EXTMAX
 10
0.4330708690000053
 20
0.2125984265999961
 30
0.0
  9
$LIMMIN
 10
0.0
 20
0.0
  9
$LIMMAX
 10
297.0
 20
210.0
  9
$ORTHOMODE
 70
     1
  9
$REGENMODE
 70
     1
  9
$FILLMODE
 70
     1
  9
$QTEXTMODE
 70
     0
  9
$MIRRTEXT
 70
     0
  9
$DRAGMODE
 70
     2
  9
$LTSCALE
 40
10.0
  9
$OSMODE
 70
     8
  9
$ATTMODE
 70
     1
  9
$TEXTSIZE
 40
0.2
  9
$TRACEWID
 40
0.05
  9
$TEXTSTYLE
  7
GHS
  9
$CLAYER
  8
0
  9
$CELTYPE
  6
BYLAYER
  9
$CECOLOR
 62
   256
  9
$DIMSCALE
 40
0.75
  9
$DIMASZ
 40
0.1
  9
$DIMEXO
 40
0.05
  9
$DIMDLI
 40
0.5
  9
$DIMRND
 40
0.0
  9
$DIMDLE
 40
0.0
  9
$DIMEXE
 40
0.1
  9
$DIMTP
 40
0.1
  9
$DIMTM
 40
0.1
  9
$DIMTXT
 40
0.12
  9
$DIMCEN
 40
0.0
  9
$DIMTSZ
 40
0.0
  9
$DIMTOL
 70
     0
  9
$DIMLIM
 70
     0
  9
$DIMTIH
 70
     1
  9
$DIMTOH
 70
     1
  9
$DIMSE1
 70
     0
  9
$DIMSE2
 70
     0
  9
$DIMTAD
 70
     0
  9
$DIMZIN
 70
     7
  9
$DIMBLK
  1

  9
$DIMASO
 70
     1
  9
$DIMSHO
 70
     1
  9
$DIMPOST
  1

  9
$DIMAPOST
  1
mm
  9
$DIMALT
 70
     0
  9
$DIMALTD
 70
     2
  9
$DIMALTF
 40
25.399999999999999
  9
$DIMLFAC
 40
1.0
  9
$DIMTOFL
 70
     0
  9
$DIMTVP
 40
0.0
  9
$DIMTIX
 70
     0
  9
$DIMSOXD
 70
     0
  9
$DIMSAH
 70
     0
  9
$DIMBLK1
  1

  9
$DIMBLK2
  1

  9
$DIMSTYLE
  2
AM_ANSI
  9
$DIMCLRD
 70
   256
  9
$DIMCLRE
 70
   256
  9
$DIMCLRT
 70
   256
  9
$DIMTFAC
 40
0.71
  9
$DIMGAP
 40
0.06
  9
$LUNITS
 70
     2
  9
$LUPREC
 70
     4
  9
$SKETCHINC
 40
0.1
  9
$FILLETRAD
 40
2.0
  9
$AUNITS
 70
     0
  9
$AUPREC
 70
     0
  9
$MENU
  1
.
  9
$ELEVATION
 40
0.0
  9
$PELEVATION
 40
0.0
  9
$THICKNESS
 40
0.0
  9
$LIMCHECK
 70
     0
  9
$BLIPMODE
 70
     0
  9
$CHAMFERA
 40
0.4
  9
$CHAMFERB
 40
0.4
  9
$SKPOLY
 70
     1
  9
$TDCREATE
 40
2450788.5131729161
  9
$TDUPDATE
 40
2453313.591627419
  9
$TDINDWG
 40
5.0472975347000002
  9
$TDUSRTIMER
 40
5.0472975347000002
  9
$USRTIMER
 70
     1
  9
$ANGBASE
 50
0.0
  9
$ANGDIR
 70
     0
  9
$PDMODE
 70
    34
  9
$PDSIZE
 40
0.0
  9
$PLINEWID
 40
0.0
  9
$COORDS
 70
     0
  9
$SPLFRAME
 70
     0
  9
$SPLINETYPE
 70
     6
  9
$SPLINESEGS
 70
     8
  9
$ATTDIA
 70
     0
  9
$ATTREQ
 70
     1
  9
$HANDLING
 70
 12289
  9
$HANDSEED
  5
754F
  9
$SURFTAB1
 70
     6
  9
$SURFTAB2
 70
     6
  9
$SURFTYPE
 70
     6
  9
$SURFU
 70
     6
  9
$SURFV
 70
     6
  9
$UCSNAME
  2

  9
$UCSORG
 10
0.0
 20
0.0
 30
0.0
  9
$UCSXDIR
 10
1.0
 20
0.0
 30
0.0
  9
$UCSYDIR
 10
0.0
 20
1.0
 30
0.0
  9
$PUCSNAME
  2

  9
$PUCSORG
 10
0.0
 20
0.0
 30
0.0
  9
$PUCSXDIR
 10
1.0
 20
0.0
 30
0.0
  9
$PUCSYDIR
 10
0.0
 20
1.0
 30
0.0
  9
$USERI1
 70
     0
  9
$USERI2
 70
     0
  9
$USERI3
 70
     0
  9
$USERI4
 70
     0
  9
$USERI5
 70
     0
  9
$USERR1
 40
0.0
  9
$USERR2
 40
0.0
  9
$USERR3
 40
0.0
  9
$USERR4
 40
0.0
  9
$USERR5
 40
0.0
  9
$WORLDVIEW
 70
     1
  9
$SHADEDGE
 70
     3
  9
$SHADEDIF
 70
    70
  9
$TILEMODE
 70
     1
  9
$MAXACTVP
 70
    48
  9
$PLIMCHECK
 70
     0
  9
$PEXTMIN
 10
1.0000000000000000E+020
 20
1.0000000000000000E+020
 30
1.0000000000000000E+020
  9
$PEXTMAX
 10
-1.0000000000000000E+020
 20
-1.0000000000000000E+020
 30
-1.0000000000000000E+020
  9
$PLIMMIN
 10
0.0
 20
0.0
  9
$PLIMMAX
 10
12.0
 20
9.0
  9
$UNITMODE
 70
     0
  9
$VISRETAIN
 70
     0
  9
$PLINEGEN
 70
     0
  9
$PSLTSCALE
 70
     1
  0
ENDSEC
  0
SECTION
  2
TABLES
  0
TABLE
  2
VPORT
 70
     4
  0
VPORT
  2
*ACTIVE
 70
     0
 10
0.0
 20
0.0
 11
1.0
 21
1.0
 12
-70.363380065918562
 22
-109.5167678280358
 13
0.0
 23
0.0
 14
0.01
 24
0.01
 15
350.0
 25
350.0
 16
0.0
 26
0.0
 36
1.0
 17
70.357272607132501
 27
109.423784148442
 37
0.0
 40
1.2642749882876521
 41
1.8430034129692829
 42
50.0
 43
0.0
 44
0.0
 50
0.0
 51
0.0
 71
     0
 72
 20000
 73
     1
 74
     0
 75
     1
 76
     0
 77
     0
 78
     0
  0
ENDTAB
  0
TABLE
  2
LTYPE
 70
    12
  0
LTYPE
  2
CONTINUOUS
 70
     0
  3
Solid line
 72
    65
 73
     0
 40
0.0
  0
LTYPE
  2
CENTER
 70
     0
  3
____ _ ____ _ ____ _ ____ _ ____ _ ____ _ ____ 
 72
    65
 73
     4
 40
2.0
 49
1.25
 49
-0.25
 49
0.25
 49
-0.25
  0
LTYPE
  2
HIDDEN
 70
     0
  3
__ __ __ __ __ __ __ __ __ __ __ __ __ __ __ __
 72
    65
 73
     2
 40
0.375
 49
0.25
 49
-0.125
  0
LTYPE
  2
PHANTOM2
 70
     0
  3
___ _ _ ___ _ _ ___ _ _ ___ _ _ ___ _ _ ___ _ _
 72
    65
 73
     6
 40
1.25
 49
0.625
 49
-0.125
 49
0.125
 49
-0.125
 49
0.125
 49
-0.125
  0
LTYPE
  2
AMCONSTR
 70
     0
  3
_______________________
 72
    65
 73
     2
 40
9999.0
 49
9999.0
 49
0.0
  0
LTYPE
  2
HIDDEN2
 70
     0
  3
_ _ _ _ _ _ _ _ _ _ _ _ _ _ _ _ _ _ _ _ _ _ _ _
 72
    65
 73
     2
 40
0.1875
 49
0.125
 49
-0.0625
  0
LTYPE
  2
CENTER2
 70
     0
  3
___ _ ___ _ ___ _ ___ _ ___ _ ___ _ ___ _ ___ _
 72
    65
 73
     4
 40
1.125
 49
0.75
 49
-0.125
 49
0.125
 49
-0.125
  0
LTYPE
  2
AMZIGZAG2
 70
     0
  3
/\/-/\/-/\/-/\/-/\/-/\/
 72
    65
 73
     2
 40
0.4401
 49
0.0001
 49
-0.4400000000000002
  0
LTYPE
  2
ASULTYPE
 70
     0
  3
Solid line
 72
    65
 73
     2
 40
3.0
 49
2.5
 49
0.5
  0
LTYPE
  2
ASVLTYPE
 70
     0
  3
__ __ __ __ __ __ __ __ __ __ __ __ __ __ __ __ __ __ __ __ __
 72
    65
 73
     2
 40
0.75
 49
0.5
 49
-0.25
  0
LTYPE
  2
ACANSTGB
 70
     0
  3
__ . . __ . .
 72
    65
 73
     6
 40
0.35433070866
 49
0.15748031496
 49
-0.03937007874
 49
0.03937007874
 49
-0.03937007874
 49
0.03937007874
 49
-0.03937007874
  0
LTYPE
  2
ACANSTGL
 70
     0
  3
_ _ _ _ _
 72
    65
 73
     2
 40
0.11811023622
 49
0.07874015748
 49
-0.03937007874
  0
ENDTAB
  0
TABLE
  2
LAYER
 70
     3
  0
LAYER
  2
0
 70
     0
 62
     7
  6
CONTINUOUS
  0
LAYER
  2
DEFPOINTS
 70
     0
 62
     7
  6
CONTINUOUS
  0
ENDTAB
  0
TABLE
  2
STYLE
 70
     6
  0
STYLE
  2
STANDARD
 70
     0
 40
0.0
 41
1.0
 50
0.0
 71
     0
 42
600.0
  3
txt
  4

  0
STYLE
  2
ROMANS
 70
     0
 40
0.0
 41
1.0
 50
0.0
 71
     0
 42
0.156
  3
romans.shx
  4

  0
STYLE
  2
GHS
 70
     0
 40
0.0
 41
0.8
 50
0.0
 71
     0
 42
0.2
  3
romans.shx
  4
ghs.shx
  0
STYLE
  2

 70
     1
 40
0.0
 41
1.0
 50
0.0
 71
     0
 42
0.156
  3
ltypeshp.shx
  4

  0
STYLE
  2
ACANSTS
 70
     0
 40
1.0
 41
1.0
 50
0.0
 71
     0
 42
0.156
  3
romans.shx
  4

  0
STYLE
  2
ACANSGDT
 70
     0
 40
0.0
 41
1.0
 50
0.0
 71
     0
 42
0.156
  3
amgdtans.shx
  4

  0
ENDTAB
  0
TABLE
  2
VIEW
 70
     0
  0
ENDTAB
  0
TABLE
  2
UCS
 70
     0
  0
ENDTAB
  0
TABLE
  2
APPID
 70
    16
  0
APPID
  2
ACAD
 70
     0
  0
APPID
  2
AD_DRAW
 70
     0
  0
APPID
  2
DESIGNERASSEMBLIES
 70
     0
  0
APPID
  2
MCAD_NO_VIS
 70
     0
  0
APPID
  2
ASURF_PCURVE_APPNAME
 70
     0
  0
APPID
  2
GENIUS_GENDIM_13
 70
     0
  0
APPID
  2
GENIUS_GENDTOL_13
 70
     0
  0
APPID
  2
GENIUS_GE3DTOL_13
 70
     0
  0
APPID
  2
ACAD_TEMP_GRAPHIC
 70
     0
  0
APPID
  2
ACATTRIBSERVICES
 70
     0
  0
APPID
  2
ACADM_DIM_EDIT
 70
     0
  0
APPID
  2
AD_SKETCHDIM
 70
     0
  0
APPID
  2
GENIUS_GENDIMSH_14
 70
     0
  0
APPID
  2
AMG_3D2D_5_0
 70
     0
  0
APPID
  2
AMDT_DM_ADJ
 70
     0
  0
APPID
  2
DCO15
 70
     0
  0
ENDTAB
  0
TABLE
  2
DIMSTYLE
 70
     8
  0
DIMSTYLE
  2
STANDARD
 70
     0
  3

  4

  5

  6
OPEN
  7
OPEN
 40
90.0
 41
3.0
 42
1.0
 43
0.38
 44
0.8
 45
0.0
 46
0.0
 47
0.1
 48
0.1
140
3.0
141
0.09
142
0.0
143
25.399999999999999
144
1.0
145
0.0
146
1.0
147
1.0
 71
     0
 72
     0
 73
     0
 74
     0
 75
     0
 76
     0
 77
     1
 78
     9
170
     0
171
     2
172
     1
173
     1
174
     0
175
     0
176
     4
177
     4
178
     4
  0
DIMSTYLE
  2
AM_ANSI
 70
     0
  3

  4
mm
  5

  6

  7

 40
0.75
 41
0.1
 42
0.05
 43
0.5
 44
0.1
 45
0.0
 46
0.0
 47
0.1
 48
0.1
140
0.12
141
0.0
142
0.0
143
25.399999999999999
144
1.0
145
0.0
146
0.71
147
0.06
 71
     0
 72
     0
 73
     1
 74
     1
 75
     0
 76
     0
 77
     0
 78
     7
170
     0
171
     2
172
     0
173
     0
174
     0
175
     0
176
   256
177
   256
178
   256
  0
DIMSTYLE
  2
AM_ANSI$3
 70
     0
  3

  4
mm
  5

  6

  7

 40
0.75
 41
0.1
 42
0.05
 43
0.5
 44
0.1
 45
0.0
 46
0.0
 47
0.1
 48
0.1
140
0.12
141
0.0
142
0.0
143
25.399999999999999
144
1.0
145
0.0
146
0.71
147
0.06
 71
     0
 72
     0
 73
     1
 74
     1
 75
     0
 76
     0
 77
     0
 78
     7
170
     0
171
     2
172
     0
173
     0
174
     0
175
     0
176
   256
177
   256
178
   256
  0
DIMSTYLE
  2
AM_ANSI$4
 70
     0
  3

  4
mm
  5

  6

  7

 40
0.75
 41
0.1
 42
0.05
 43
0.5
 44
0.1
 45
0.0
 46
0.0
 47
0.1
 48
0.1
140
0.12
141
0.0
142
0.0
143
25.399999999999999
144
1.0
145
0.0
146
0.71
147
0.06
 71
     0
 72
     0
 73
     1
 74
     1
 75
     0
 76
     0
 77
     0
 78
     7
170
     0
171
     2
172
     0
173
     0
174
     0
175
     0
176
   256
177
   256
178
   256
  0
DIMSTYLE
  2
AM_ANSI$6
 70
     0
  3

  4
mm
  5

  6

  7

 40
0.75
 41
0.1
 42
0.05
 43
0.5
 44
0.1
 45
0.0
 46
0.0
 47
0.1
 48
0.1
140
0.12
141
0.0
142
0.0
143
25.399999999999999
144
1.0
145
0.0
146
0.71
147
0.06
 71
     0
 72
     0
 73
     1
 74
     1
 75
     0
 76
     0
 77
     0
 78
     7
170
     0
171
     2
172
     0
173
     0
174
     0
175
     0
176
   256
177
   256
178
   256
  0
DIMSTYLE
  2
AM_ANSI$7
 70
     0
  3

  4
mm
  5

  6

  7

 40
0.75
 41
0.1
 42
0.05
 43
0.5
 44
0.1
 45
0.0
 46
0.0
 47
0.1
 48
0.1
140
0.12
141
0.0
142
0.0
143
25.399999999999999
144
1.0
145
0.0
146
0.71
147
0.06
 71
     0
 72
     0
 73
     1
 74
     1
 75
     0
 76
     0
 77
     0
 78
     7
170
     0
171
     2
172
     0
173
     0
174
     0
175
     0
176
   256
177
   256
178
   256
  0
DIMSTYLE
  2
AM_ANSI$SF
 70
     0
  3

  4
mm
  5

  6

  7

 40
1.0
 41
0.1
 42
0.05
 43
0.5
 44
0.1
 45
0.0
 46
0.0
 47
0.1
 48
0.1
140
0.12
141
0.0
142
0.0
143
25.399999999999999
144
1.0
145
0.0
146
0.71
147
0.06
 71
     0
 72
     0
 73
     1
 74
     1
 75
     1
 76
     1
 77
     0
 78
     7
170
     0
171
     2
172
     0
173
     0
174
     0
175
     0
176
   256
177
   256
178
     2
  0
DIMSTYLE
  2
AM_ANSI$SH
 70
     0
  3

  4
mm
  5

  6
GENAXEH
  7

 40
1.0
 41
0.1
 42
0.05
 43
0.5
 44
0.1
 45
0.0
 46
0.0
 47
0.1
 48
0.1
140
0.12
141
0.0
142
0.0
143
25.399999999999999
144
1.0
145
0.0
146
0.71
147
0.06
 71
     0
 72
     0
 73
     1
 74
     1
 75
     1
 76
     1
 77
     0
 78
     7
170
     0
171
     2
172
     0
173
     1
174
     0
175
     0
176
   256
177
   256
178
     2
  0
ENDTAB
  0
ENDSEC
  0
SECTION
  2
BLOCKS
  0
BLOCK
  8
0
  2
$MODEL_SPACE
 70
     0
 10
0.0
 20
0.0
 30
0.0
  3
$MODEL_SPACE
  1

  0
ENDBLK
  5
6
  8
0
  0
BLOCK
 67
     1
  8
0
  2
$PAPER_SPACE
 70
     0
 10
0.0
 20
0.0
 30
0.0
  3
$PAPER_SPACE
  1

  0
ENDBLK
  5
9
 67
     1
  8
0
  0
BLOCK
  8
0
  2
_OPEN
 70
     0
 10
0.0
 20
0.0
 30
0.0
  3
_OPEN
  1

  0
LINE
  5
20
  8
0
  6
BYBLOCK
 62
     0
 10
-1.0
 20
0.1666666666666666
 30
0.0
 11
0.0
 21
0.0
 31
0.0
  0
LINE
  5
21
  8
0
  6
BYBLOCK
 62
     0
 10
0.0
 20
0.0
 30
0.0
 11
-1.0
 21
-0.1666666666666666
 31
0.0
  0
LINE
  5
22
  8
0
  6
BYBLOCK
 62
     0
 10
0.0
 20
0.0
 30
0.0
 11
-1.0
 21
0.0
 31
0.0
  0
ENDBLK
  5
24
  8
0
  0
BLOCK
  8
0
  2
GENAXEH
 70
     0
 10
0.0
 20
0.0
 30
0.0
  3
GENAXEH
  1

  0
LINE
  5
73AA
  8
0
 10
-1.0
 20
0.0
 30
0.0
 11
1.0
 21
0.0
 31
0.0
  0
ENDBLK
  5
73AB
  8
0
  0
BLOCK
  8
0
  2
*U5
 70
     1
 10
0.0
 20
0.0
 30
0.0
  3
*U5
  1

  0
TEXT
  5
754B
  8
0
 10
-0.0792857142857143
 20
-0.225
 30
0.0
 40
0.09
  1
\U+2205
  7
ROMANS
  0
TEXT
  5
754C
  8
0
 10
0.0021428571428571
 20
-0.225
 30
0.0
 40
0.09
  1
A
  7
ROMANS
  0
ENDBLK
  5
754E
  8
0
  0
ENDSEC
  0
SECTION
  2
ENTITIES
  0
LINE
  5
69D5
  8
0
 10
-0.1732283475999949
 20
0.2125984265999961
 30
0.0
 11
0.0000000000000071
 21
0.2125984265999961
 31
0.0
  0
LINE
  5
6A17
  8
0
 10
-0.1732283475999949
 20
0.0
 30
0.0
 11
-0.1732283475999949
 21
0.2125984265999961
 31
0.0
  0
LINE
  5
6A1A
  8
0
 10
-0.2637795292999954
 20
-0.0236220473999964
 30
0.0
 11
0.0000000000000071
 21
-0.0236220473999964
 31
0.0
  0
LINE
  5
6A1B
  8
0
 10
-0.2952755924999906
 20
-0.0826771659000088
 30
0.0
 11
0.0000000000000071
 21
-0.0826771659000088
 31
0.0
  0
LINE
  5
6A1D
  8
0
 10
-0.2952755924999906
 20
-0.0826771659000088
 30
0.0
 11
-0.2952755924999906
 21
-0.0629921264000046
 31
0.0
  0
LINE
  5
6A1E
  8
0
 10
-0.2637795292999954
 20
-0.0236220473999964
 30
0.0
 11
-0.2952755924999906
 21
-0.0629921264000046
 31
0.0
  0
LINE
  5
6A20
  8
0
 10
-0.1929133870999919
 20
0.0551181105999917
 30
0.0
 11
-0.1929133870999919
 21
0.1929133870999919
 31
0.0
  0
LINE
  5
6A21
  8
0
 10
-0.1929133870999919
 20
0.0551181105999917
 30
0.0
 11
0.0000000000000071
 21
0.0551181105999917
 31
0.0
  0
LINE
  5
6A22
  8
0
 10
-0.1929133870999919
 20
0.1929133870999919
 30
0.0
 11
-0.1732283475999949
 21
0.2125984265999961
 31
0.0
  0
LINE
  5
6C4D
  8
0
 10
-0.2874015766999918
 20
-0.0826771659000088
 30
0.0
 11
-0.2874015766999918
 21
-0.2598425214000031
 31
0.0
  0
LINE
  5
6C50
  8
0
 10
-0.2874015766999918
 20
-0.1614173238999967
 30
0.0
 11
0.0000000000000071
 21
-0.1614173238999967
 31
0.0
  0
LINE
  5
6C52
  8
0
 10
-0.2874015766999918
 20
-0.240157481899999
 30
0.0
 11
0.0000000000000071
 21
-0.240157481899999
 31
0.0
  0
LINE
  5
6C92
  8
0
 10
-0.1929133870999919
 20
0.1929133870999919
 30
0.0
 11
0.0000000000000071
 21
0.1929133870999919
 31
0.0
  0
LINE
  5
6C93
  8
0
 10
-0.2952755924999906
 20
-0.0629921264000046
 30
0.0
 11
0.0000000000000071
 21
-0.0629921264000046
 31
0.0
  0
LINE
  5
6D20
  8
0
 10
-0.2874015766999918
 20
-0.2598425214000031
 30
0.0
 11
0.0000000000000071
 21
-0.2598425214000031
 31
0.0
  0
LINE
  5
6D29
  8
0
 10
-0.433070868999991
 20
-0.3976377979000034
 30
0.0
 11
0.0000000000000071
 21
-0.3976377979000034
 31
0.0
  0
LINE
  5
6D2A
  8
0
 10
-0.2874015766999918
 20
-0.2598425214000031
 30
0.0
 11
-0.433070868999991
 21
-0.3976377979000034
 31
0.0
  0
ARC
  5
712E
  8
0
 10
-0.2086614186999896
 20
-0.0354330711000017
 30
0.0
 40
0.0354330711000002
 50
90.0
 51
160.5287793655115
  0
LINE
  5
712F
  8
0
 10
-0.2086614186999896
 20
0.0
 30
0.0
 11
0.0000000000000071
 21
0.0
 31
0.0
  0
LINE
  5
7285
  8
0
 10
0.287401576700006
 20
-0.2598425214000031
 30
0.0
 11
0.0000000000000071
 21
-0.2598425214000031
 31
0.0
  0
LINE
  5
7286
  8
0
 10
0.287401576700006
 20
-0.240157481899999
 30
0.0
 11
0.0000000000000071
 21
-0.240157481899999
 31
0.0
  0
LINE
  5
7287
  8
0
 10
0.173228347600002
 20
0.2125984265999961
 30
0.0
 11
0.0
 21
0.2125984265999961
 31
0.0
  0
LINE
  5
7288
  8
0
 10
0.2086614187000038
 20
0.0
 30
0.0
 11
0.0
 21
0.0
 31
0.0
  0
LINE
  5
7289
  8
0
 10
0.2952755925000048
 20
-0.0629921264000046
 30
0.0
 11
0.0
 21
-0.0629921264000046
 31
0.0
  0
LINE
  5
728A
  8
0
 10
0.192913387099999
 20
0.1929133871000061
 30
0.0
 11
0.0
 21
0.1929133870999919
 31
0.0
  0
LINE
  5
728B
  8
0
 10
0.287401576700006
 20
-0.1614173238999967
 30
0.0
 11
0.0000000000000071
 21
-0.1614173238999967
 31
0.0
  0
LINE
  5
728C
  8
0
 10
0.192913387099999
 20
0.0551181106000059
 30
0.0
 11
0.0
 21
0.0551181105999917
 31
0.0
  0
LINE
  5
728D
  8
0
 10
0.2952755925000048
 20
-0.0826771658999945
 30
0.0
 11
0.0
 21
-0.0826771659000088
 31
0.0
  0
LINE
  5
728E
  8
0
 10
0.2637795293000025
 20
-0.0236220473999964
 30
0.0
 11
0.0
 21
-0.0236220473999964
 31
0.0
  0
LINE
  5
728F
  8
0
 10
0.192913387099999
 20
0.0551181106000059
 30
0.0
 11
0.192913387099999
 21
0.1929133871000061
 31
0.0
  0
LINE
  5
7290
  8
0
 10
0.173228347600002
 20
0.0
 30
0.0
 11
0.173228347600002
 21
0.2125984265999961
 31
0.0
  0
LINE
  5
7291
  8
0
 10
0.192913387099999
 20
0.1929133871000061
 30
0.0
 11
0.173228347600002
 21
0.2125984265999961
 31
0.0
  0
ARC
  5
7292
  8
0
 10
0.2086614187000038
 20
-0.0354330711000017
 30
0.0
 40
0.0354330711000002
 50
19.4712206344891
 51
90.000000000000668
  0
LINE
  5
7293
  8
0
 10
0.2637795293000025
 20
-0.0236220473999964
 30
0.0
 11
0.2952755925000048
 21
-0.0629921264000046
 31
0.0
  0
LINE
  5
7294
  8
0
 10
0.2952755925000048
 20
-0.0826771658999945
 30
0.0
 11
0.2952755925000048
 21
-0.0629921264000046
 31
0.0
  0
LINE
  5
7295
  8
0
 10
0.287401576700006
 20
-0.0826771658999945
 30
0.0
 11
0.287401576700006
 21
-0.2598425214000031
 31
0.0
  0
LINE
  5
7296
  8
0
 10
0.287401576700006
 20
-0.2598425214000031
 30
0.0
 11
0.4330708690000053
 21
-0.3976377979000034
 31
0.0
  0
LINE
  5
7297
  8
0
 10
0.4330708690000053
 20
-0.3976377979000034
 30
0.0
 11
0.0000000000000071
 21
-0.3976377979000034
 31
0.0
  0
ENDSEC
  0
EOF
