  0
SECTION
  2
HEADER
  9
$ACADVER
  1
AC1009
  9
$INSBASE
 10
0.0
 20
0.0
 30
0.0
  9
$EXTMIN
 10
-1.150830160452869
 20
-1.736754884171205
 30
-0.0015258207003583
  9
$EXTMAX
 10
1.1465568060360729
 20
0.009613281592749
 30
0.0000000349246037
  9
$LIMMIN
 10
0.0
 20
0.0
  9
$LIMMAX
 10
297.0
 20
210.0
  9
$ORTHOMODE
 70
     1
  9
$REGENMODE
 70
     1
  9
$FILLMODE
 70
     1
  9
$QTEXTMODE
 70
     0
  9
$MIRRTEXT
 70
     0
  9
$DRAGMODE
 70
     2
  9
$LTSCALE
 40
10.0
  9
$OSMODE
 70
     8
  9
$ATTMODE
 70
     1
  9
$TEXTSIZE
 40
0.2
  9
$TRACEWID
 40
0.05
  9
$TEXTSTYLE
  7
GHS
  9
$CLAYER
  8
0
  9
$CELTYPE
  6
BYLAYER
  9
$CECOLOR
 62
   256
  9
$DIMSCALE
 40
1.0
  9
$DIMASZ
 40
0.1
  9
$DIMEXO
 40
0.05
  9
$DIMDLI
 40
0.5
  9
$DIMRND
 40
0.0
  9
$DIMDLE
 40
0.0
  9
$DIMEXE
 40
0.1
  9
$DIMTP
 40
0.1
  9
$DIMTM
 40
0.1
  9
$DIMTXT
 40
0.12
  9
$DIMCEN
 40
0.0
  9
$DIMTSZ
 40
0.0
  9
$DIMTOL
 70
     0
  9
$DIMLIM
 70
     0
  9
$DIMTIH
 70
     1
  9
$DIMTOH
 70
     1
  9
$DIMSE1
 70
     0
  9
$DIMSE2
 70
     0
  9
$DIMTAD
 70
     0
  9
$DIMZIN
 70
     7
  9
$DIMBLK
  1

  9
$DIMASO
 70
     1
  9
$DIMSHO
 70
     1
  9
$DIMPOST
  1

  9
$DIMAPOST
  1
mm
  9
$DIMALT
 70
     0
  9
$DIMALTD
 70
     2
  9
$DIMALTF
 40
25.399999999999999
  9
$DIMLFAC
 40
1.0
  9
$DIMTOFL
 70
     0
  9
$DIMTVP
 40
0.0
  9
$DIMTIX
 70
     0
  9
$DIMSOXD
 70
     0
  9
$DIMSAH
 70
     0
  9
$DIMBLK1
  1

  9
$DIMBLK2
  1

  9
$DIMSTYLE
  2
AM_ANSI
  9
$DIMCLRD
 70
   256
  9
$DIMCLRE
 70
   256
  9
$DIMCLRT
 70
   256
  9
$DIMTFAC
 40
0.71
  9
$DIMGAP
 40
0.06
  9
$LUNITS
 70
     2
  9
$LUPREC
 70
     4
  9
$SKETCHINC
 40
0.1
  9
$FILLETRAD
 40
1.0
  9
$AUNITS
 70
     0
  9
$AUPREC
 70
     0
  9
$MENU
  1
.
  9
$ELEVATION
 40
0.0
  9
$PELEVATION
 40
0.0
  9
$THICKNESS
 40
0.0
  9
$LIMCHECK
 70
     0
  9
$BLIPMODE
 70
     0
  9
$CHAMFERA
 40
1.5
  9
$CHAMFERB
 40
1.5
  9
$SKPOLY
 70
     1
  9
$TDCREATE
 40
2450788.5131729161
  9
$TDUPDATE
 40
2453313.5755094332
  9
$TDINDWG
 40
5.2282849653000003
  9
$TDUSRTIMER
 40
5.2282849653000003
  9
$USRTIMER
 70
     1
  9
$ANGBASE
 50
0.0
  9
$ANGDIR
 70
     0
  9
$PDMODE
 70
    34
  9
$PDSIZE
 40
0.0
  9
$PLINEWID
 40
0.0
  9
$COORDS
 70
     0
  9
$SPLFRAME
 70
     0
  9
$SPLINETYPE
 70
     6
  9
$SPLINESEGS
 70
     8
  9
$ATTDIA
 70
     0
  9
$ATTREQ
 70
     1
  9
$HANDLING
 70
 12289
  9
$HANDSEED
  5
9D77
  9
$SURFTAB1
 70
     6
  9
$SURFTAB2
 70
     6
  9
$SURFTYPE
 70
     6
  9
$SURFU
 70
     6
  9
$SURFV
 70
     6
  9
$UCSNAME
  2

  9
$UCSORG
 10
0.0
 20
0.0
 30
0.0
  9
$UCSXDIR
 10
1.0
 20
0.0
 30
0.0
  9
$UCSYDIR
 10
0.0
 20
1.0
 30
0.0
  9
$PUCSNAME
  2

  9
$PUCSORG
 10
0.0
 20
0.0
 30
0.0
  9
$PUCSXDIR
 10
1.0
 20
0.0
 30
0.0
  9
$PUCSYDIR
 10
0.0
 20
1.0
 30
0.0
  9
$USERI1
 70
     0
  9
$USERI2
 70
     0
  9
$USERI3
 70
     0
  9
$USERI4
 70
     0
  9
$USERI5
 70
     0
  9
$USERR1
 40
0.0
  9
$USERR2
 40
0.0
  9
$USERR3
 40
0.0
  9
$USERR4
 40
0.0
  9
$USERR5
 40
0.0
  9
$WORLDVIEW
 70
     1
  9
$SHADEDGE
 70
     3
  9
$SHADEDIF
 70
    70
  9
$TILEMODE
 70
     1
  9
$MAXACTVP
 70
    48
  9
$PLIMCHECK
 70
     0
  9
$PEXTMIN
 10
1.0000000000000000E+020
 20
1.0000000000000000E+020
 30
1.0000000000000000E+020
  9
$PEXTMAX
 10
-1.0000000000000000E+020
 20
-1.0000000000000000E+020
 30
-1.0000000000000000E+020
  9
$PLIMMIN
 10
0.0
 20
0.0
  9
$PLIMMAX
 10
12.0
 20
9.0
  9
$UNITMODE
 70
     0
  9
$VISRETAIN
 70
     0
  9
$PLINEGEN
 70
     0
  9
$PSLTSCALE
 70
     1
  0
ENDSEC
  0
SECTION
  2
TABLES
  0
TABLE
  2
VPORT
 70
     7
  0
VPORT
  2
*ACTIVE
 70
     0
 10
0.0
 20
0.0
 11
1.0
 21
1.0
 12
-214.33795259745179
 22
-27.686355096873321
 13
0.0
 23
0.0
 14
0.01
 24
0.01
 15
350.0
 25
350.0
 16
0.0
 26
0.0
 36
1.0
 17
214.33581592024339
 27
26.822784295584089
 37
0.0
 40
3.5284372139626039
 41
1.8430034129692829
 42
50.0
 43
0.0
 44
0.0
 50
0.0
 51
0.0
 71
     0
 72
 20000
 73
     1
 74
     0
 75
     0
 76
     0
 77
     0
 78
     0
  0
ENDTAB
  0
TABLE
  2
LTYPE
 70
    12
  0
LTYPE
  2
CONTINUOUS
 70
     0
  3
Solid line
 72
    65
 73
     0
 40
0.0
  0
LTYPE
  2
CENTER
 70
     0
  3
____ _ ____ _ ____ _ ____ _ ____ _ ____ _ ____ 
 72
    65
 73
     4
 40
2.0
 49
1.25
 49
-0.25
 49
0.25
 49
-0.25
  0
LTYPE
  2
HIDDEN
 70
     0
  3
__ __ __ __ __ __ __ __ __ __ __ __ __ __ __ __
 72
    65
 73
     2
 40
0.375
 49
0.25
 49
-0.125
  0
LTYPE
  2
PHANTOM2
 70
     0
  3
___ _ _ ___ _ _ ___ _ _ ___ _ _ ___ _ _ ___ _ _
 72
    65
 73
     6
 40
1.25
 49
0.625
 49
-0.125
 49
0.125
 49
-0.125
 49
0.125
 49
-0.125
  0
LTYPE
  2
AMCONSTR
 70
     0
  3
_______________________
 72
    65
 73
     2
 40
9999.0
 49
9999.0
 49
0.0
  0
LTYPE
  2
HIDDEN2
 70
     0
  3
_ _ _ _ _ _ _ _ _ _ _ _ _ _ _ _ _ _ _ _ _ _ _ _
 72
    65
 73
     2
 40
0.1875
 49
0.125
 49
-0.0625
  0
LTYPE
  2
CENTER2
 70
     0
  3
___ _ ___ _ ___ _ ___ _ ___ _ ___ _ ___ _ ___ _
 72
    65
 73
     4
 40
1.125
 49
0.75
 49
-0.125
 49
0.125
 49
-0.125
  0
LTYPE
  2
AMZIGZAG2
 70
     0
  3
/\/-/\/-/\/-/\/-/\/-/\/
 72
    65
 73
     2
 40
0.4401
 49
0.0001
 49
-0.4400000000000002
  0
LTYPE
  2
ASULTYPE
 70
     0
  3
Solid line
 72
    65
 73
     2
 40
3.0
 49
2.5
 49
0.5
  0
LTYPE
  2
ASVLTYPE
 70
     0
  3
__ __ __ __ __ __ __ __ __ __ __ __ __ __ __ __ __ __ __ __ __
 72
    65
 73
     2
 40
0.75
 49
0.5
 49
-0.25
  0
LTYPE
  2
ACANSTGB
 70
     0
  3
__ . . __ . .
 72
    65
 73
     6
 40
0.35433070866
 49
0.15748031496
 49
-0.03937007874
 49
0.03937007874
 49
-0.03937007874
 49
0.03937007874
 49
-0.03937007874
  0
LTYPE
  2
ACANSTGL
 70
     0
  3
_ _ _ _ _
 72
    65
 73
     2
 40
0.11811023622
 49
0.07874015748
 49
-0.03937007874
  0
ENDTAB
  0
TABLE
  2
LAYER
 70
     3
  0
LAYER
  2
0
 70
     0
 62
     7
  6
CONTINUOUS
  0
LAYER
  2
DEFPOINTS
 70
     0
 62
     7
  6
CONTINUOUS
  0
ENDTAB
  0
TABLE
  2
STYLE
 70
     6
  0
STYLE
  2
STANDARD
 70
     0
 40
0.0
 41
1.0
 50
0.0
 71
     0
 42
600.0
  3
txt
  4

  0
STYLE
  2
ROMANS
 70
     0
 40
0.0
 41
1.0
 50
0.0
 71
     0
 42
0.156
  3
romans.shx
  4

  0
STYLE
  2
GHS
 70
     0
 40
0.0
 41
0.8
 50
0.0
 71
     0
 42
0.2
  3
romans.shx
  4
ghs.shx
  0
STYLE
  2

 70
     1
 40
0.0
 41
1.0
 50
0.0
 71
     0
 42
0.156
  3
ltypeshp.shx
  4

  0
STYLE
  2
ACANSTS
 70
     0
 40
1.0
 41
1.0
 50
0.0
 71
     0
 42
0.156
  3
romans.shx
  4

  0
STYLE
  2
ACANSGDT
 70
     0
 40
0.0
 41
1.0
 50
0.0
 71
     0
 42
0.156
  3
amgdtans.shx
  4

  0
ENDTAB
  0
TABLE
  2
VIEW
 70
     0
  0
ENDTAB
  0
TABLE
  2
UCS
 70
     0
  0
ENDTAB
  0
TABLE
  2
APPID
 70
    16
  0
APPID
  2
ACAD
 70
     0
  0
APPID
  2
AD_DRAW
 70
     0
  0
APPID
  2
DESIGNERASSEMBLIES
 70
     0
  0
APPID
  2
MCAD_NO_VIS
 70
     0
  0
APPID
  2
ASURF_PCURVE_APPNAME
 70
     0
  0
APPID
  2
GENIUS_GENDIM_13
 70
     0
  0
APPID
  2
GENIUS_GENDTOL_13
 70
     0
  0
APPID
  2
GENIUS_GE3DTOL_13
 70
     0
  0
APPID
  2
ACAD_TEMP_GRAPHIC
 70
     0
  0
APPID
  2
ACATTRIBSERVICES
 70
     0
  0
APPID
  2
ACADM_DIM_EDIT
 70
     0
  0
APPID
  2
AD_SKETCHDIM
 70
     0
  0
APPID
  2
GENIUS_GENDIMSH_14
 70
     0
  0
APPID
  2
AMG_3D2D_5_0
 70
     0
  0
APPID
  2
AMDT_DM_ADJ
 70
     0
  0
APPID
  2
DCO15
 70
     0
  0
ENDTAB
  0
TABLE
  2
DIMSTYLE
 70
     8
  0
DIMSTYLE
  2
STANDARD
 70
     0
  3

  4

  5

  6
OPEN
  7
OPEN
 40
90.0
 41
3.0
 42
1.0
 43
0.38
 44
0.8
 45
0.0
 46
0.0
 47
0.1
 48
0.1
140
3.0
141
0.09
142
0.0
143
25.399999999999999
144
1.0
145
0.0
146
1.0
147
1.0
 71
     0
 72
     0
 73
     0
 74
     0
 75
     0
 76
     0
 77
     1
 78
     9
170
     0
171
     2
172
     1
173
     1
174
     0
175
     0
176
     4
177
     4
178
     4
  0
DIMSTYLE
  2
AM_ANSI
 70
     0
  3

  4
mm
  5

  6

  7

 40
1.0
 41
0.1
 42
0.05
 43
0.5
 44
0.1
 45
0.0
 46
0.0
 47
0.1
 48
0.1
140
0.12
141
0.0
142
0.0
143
25.399999999999999
144
1.0
145
0.0
146
0.71
147
0.06
 71
     0
 72
     0
 73
     1
 74
     1
 75
     0
 76
     0
 77
     0
 78
     7
170
     0
171
     2
172
     0
173
     0
174
     0
175
     0
176
   256
177
   256
178
   256
  0
DIMSTYLE
  2
AM_ANSI$3
 70
     0
  3

  4
mm
  5

  6

  7

 40
1.0
 41
0.1
 42
0.05
 43
0.5
 44
0.1
 45
0.0
 46
0.0
 47
0.1
 48
0.1
140
0.12
141
0.0
142
0.0
143
25.399999999999999
144
1.0
145
0.0
146
0.71
147
0.06
 71
     0
 72
     0
 73
     1
 74
     1
 75
     0
 76
     0
 77
     0
 78
     7
170
     0
171
     2
172
     0
173
     0
174
     0
175
     0
176
   256
177
   256
178
   256
  0
DIMSTYLE
  2
AM_ANSI$4
 70
     0
  3

  4
mm
  5

  6

  7

 40
1.0
 41
0.1
 42
0.05
 43
0.5
 44
0.1
 45
0.0
 46
0.0
 47
0.1
 48
0.1
140
0.12
141
0.0
142
0.0
143
25.399999999999999
144
1.0
145
0.0
146
0.71
147
0.06
 71
     0
 72
     0
 73
     1
 74
     1
 75
     0
 76
     0
 77
     0
 78
     7
170
     0
171
     2
172
     0
173
     0
174
     0
175
     0
176
   256
177
   256
178
   256
  0
DIMSTYLE
  2
AM_ANSI$6
 70
     0
  3

  4
mm
  5

  6

  7

 40
1.0
 41
0.1
 42
0.05
 43
0.5
 44
0.1
 45
0.0
 46
0.0
 47
0.1
 48
0.1
140
0.12
141
0.0
142
0.0
143
25.399999999999999
144
1.0
145
0.0
146
0.71
147
0.06
 71
     0
 72
     0
 73
     1
 74
     1
 75
     0
 76
     0
 77
     0
 78
     7
170
     0
171
     2
172
     0
173
     0
174
     0
175
     0
176
   256
177
   256
178
   256
  0
DIMSTYLE
  2
AM_ANSI$7
 70
     0
  3

  4
mm
  5

  6

  7

 40
1.0
 41
0.1
 42
0.05
 43
0.5
 44
0.1
 45
0.0
 46
0.0
 47
0.1
 48
0.1
140
0.12
141
0.0
142
0.0
143
25.399999999999999
144
1.0
145
0.0
146
0.71
147
0.06
 71
     0
 72
     0
 73
     1
 74
     1
 75
     0
 76
     0
 77
     0
 78
     7
170
     0
171
     2
172
     0
173
     0
174
     0
175
     0
176
   256
177
   256
178
   256
  0
DIMSTYLE
  2
AM_ANSI$SF
 70
     0
  3

  4
mm
  5

  6

  7

 40
1.0
 41
0.1
 42
0.05
 43
0.5
 44
0.1
 45
0.0
 46
0.0
 47
0.1
 48
0.1
140
0.12
141
0.0
142
0.0
143
25.399999999999999
144
1.0
145
0.0
146
0.71
147
0.06
 71
     0
 72
     0
 73
     1
 74
     1
 75
     1
 76
     1
 77
     0
 78
     7
170
     0
171
     2
172
     0
173
     0
174
     0
175
     0
176
   256
177
   256
178
     2
  0
DIMSTYLE
  2
AM_ANSI$SH
 70
     0
  3

  4
mm
  5

  6
GENAXEH
  7

 40
1.0
 41
0.1
 42
0.05
 43
0.5
 44
0.1
 45
0.0
 46
0.0
 47
0.1
 48
0.1
140
0.12
141
0.0
142
0.0
143
25.399999999999999
144
1.0
145
0.0
146
0.71
147
0.06
 71
     0
 72
     0
 73
     1
 74
     1
 75
     1
 76
     1
 77
     0
 78
     7
170
     0
171
     2
172
     0
173
     1
174
     0
175
     0
176
   256
177
   256
178
     2
  0
ENDTAB
  0
ENDSEC
  0
SECTION
  2
BLOCKS
  0
BLOCK
  8
0
  2
$MODEL_SPACE
 70
     0
 10
0.0
 20
0.0
 30
0.0
  3
$MODEL_SPACE
  1

  0
ENDBLK
  5
6
  8
0
  0
BLOCK
 67
     1
  8
0
  2
$PAPER_SPACE
 70
     0
 10
0.0
 20
0.0
 30
0.0
  3
$PAPER_SPACE
  1

  0
ENDBLK
  5
9
 67
     1
  8
0
  0
BLOCK
  8
0
  2
_OPEN
 70
     0
 10
0.0
 20
0.0
 30
0.0
  3
_OPEN
  1

  0
LINE
  5
20
  8
0
  6
BYBLOCK
 62
     0
 10
-1.0
 20
0.1666666666666666
 30
0.0
 11
0.0
 21
0.0
 31
0.0
  0
LINE
  5
21
  8
0
  6
BYBLOCK
 62
     0
 10
0.0
 20
0.0
 30
0.0
 11
-1.0
 21
-0.1666666666666666
 31
0.0
  0
LINE
  5
22
  8
0
  6
BYBLOCK
 62
     0
 10
0.0
 20
0.0
 30
0.0
 11
-1.0
 21
0.0
 31
0.0
  0
ENDBLK
  5
24
  8
0
  0
BLOCK
  8
0
  2
GENAXEH
 70
     0
 10
0.0
 20
0.0
 30
0.0
  3
GENAXEH
  1

  0
LINE
  5
9CFF
  8
0
 10
-1.0
 20
0.0
 30
0.0
 11
1.0
 21
0.0
 31
0.0
  0
ENDBLK
  5
9D00
  8
0
  0
ENDSEC
  0
SECTION
  2
ENTITIES
  0
LINE
  5
6CB0
  8
0
 10
-0.2854330727499956
 20
-0.2440944897999984
 30
0.0
 11
-0.2854330727499956
 21
0.0
 31
0.0
  0
LINE
  5
6CB1
  8
0
 10
-0.5511811060000014
 20
-0.078740158000002
 30
0.0
 11
-0.4724409479999993
 21
0.0
 31
0.0
  0
LINE
  5
6CB9
  8
0
 10
-0.7036406887248035
 20
-1.4714103863831469
 30
0.0
 11
-1.0039370144999951
 21
-1.326771662300007
 31
0.0
  0
LINE
  5
6CBA
  8
0
 10
-0.7027445796628343
 20
-1.5596428151345649
 30
0.0
 11
-1.0433070935000031
 21
-1.732283476000005
 31
0.0
  0
LINE
  5
6CBB
  8
0
 10
-1.0039370144999951
 20
-1.161417330499982
 30
0.0
 11
0.0
 21
-1.161417330499986
 31
0.0
  0
LINE
  5
6CBC
  8
0
 10
-1.003937014500053
 20
-1.3267716622999819
 30
0.0
 11
0.0
 21
-1.3267716622999819
 31
0.0
  0
LINE
  5
6CBD
  8
0
 10
-0.7346669860438341
 20
-0.9983997997589669
 30
0.0
 11
-1.0039370144999951
 21
-1.161417330499982
 31
0.0
  0
LINE
  5
6CBF
  8
0
 10
-1.0433070935000031
 20
-1.732283475999981
 30
0.0
 11
0.0
 21
-1.732283475999995
 31
0.0
  0
LINE
  5
6CC2
  8
0
 10
-1.141732290999995
 20
-1.161417330499982
 30
0.0
 11
-1.0039370144999951
 21
-1.161417330499982
 31
0.0
  0
LINE
  5
6CC3
  8
0
 10
-1.141732290999995
 20
-1.3267716622999819
 30
0.0
 11
-1.003937014500053
 21
-1.3267716622999819
 31
0.0
  0
ARC
  5
6CCE
  8
0
 10
-0.8366141787499968
 20
-0.8300048832353748
 30
0.0
 40
0.196850395
 50
301.19093924121671
 51
0.0
  0
ARC
  5
6CCF
  8
0
 10
-0.7249960677770986
 20
-1.5157480415000031
 30
0.0
 40
0.04921259875
 50
296.88172474130067
 51
359.99999999999972
  0
ARC
  5
6CD0
  8
0
 10
-0.7249960677770986
 20
-1.5157480415000031
 30
0.0
 40
0.04921259875
 50
0.0000000000003378
 51
64.282053763569991
  0
LINE
  5
6CD2
  8
0
 10
-0.2322834661000002
 20
-0.3543307110000033
 30
0.0
 11
0.0
 21
-0.3543307110000033
 31
0.0
  0
LINE
  5
6CD3
  8
0
 10
-0.2854330727499956
 20
-0.2440944897999984
 30
0.0
 11
0.0
 21
-0.2440944898000019
 31
0.0
  0
LINE
  5
6CD4
  8
0
 10
-0.6397637837499987
 20
-0.7637795326000008
 30
0.0
 11
0.0
 21
-0.7637795326000008
 31
0.0
  0
LINE
  5
6CD5
  8
0
 10
-0.5511811060000014
 20
-0.5905511850000023
 30
0.0
 11
0.0
 21
-0.5905511850000023
 31
0.0
  0
LINE
  5
6CD6
  8
0
 10
-0.5511811060000014
 20
-0.7637795326000008
 30
0.0
 11
-0.5511811060000014
 21
-0.078740158000002
 31
0.0
  0
LINE
  5
6CD7
  8
0
 10
-0.6397637837499987
 20
-0.7637795326000008
 30
0.0
 11
-0.6397637837499987
 21
-0.8300048832353748
 31
0.0
  0
LINE
  5
6CD8
  8
0
 10
-0.5511811060000014
 20
-0.3543307110000033
 30
0.0
 11
-0.2322834661000002
 21
-0.3543307110000033
 31
0.0
  0
LINE
  5
6CD9
  8
0
 10
-0.5511811060000014
 20
-0.078740158000002
 30
0.0
 11
-0.2854330727499956
 21
-0.078740158000002
 31
0.0
  0
LINE
  5
6D04
  8
0
 10
-0.2165354345000026
 20
0.0
 30
0.0
 11
0.0
 21
0.0
 31
0.0
  0
LINE
  5
6D05
  8
0
 10
-0.4724409479999993
 20
0.0
 30
0.0
 11
-0.2165354345000026
 21
0.0
 31
0.0
  0
LINE
  5
9189
  8
0
 10
-0.7036406887248035
 20
-1.4714103863831469
 30
0.0
 11
0.0
 21
-1.4714103863831469
 31
0.0
  0
LINE
  5
918A
  8
0
 10
-0.7027445796628343
 20
-1.5596428151345649
 30
0.0
 11
0.0
 21
-1.5596428151345649
 31
0.0
  0
LINE
  5
934C
  8
0
 10
-1.141732290999995
 20
-1.161417330499982
 30
0.0
 11
-1.141732290999995
 21
-1.3267716622999819
 31
0.0
  0
LINE
  5
9BD2
  8
0
 10
0.2854330727499956
 20
-0.2440944897999984
 30
0.0
 11
0.2854330727499956
 21
0.0
 31
0.0
  0
LINE
  5
9BD3
  8
0
 10
0.5511811060000014
 20
-0.3543307110000033
 30
0.0
 11
0.2322834661000002
 21
-0.3543307110000033
 31
0.0
  0
LINE
  5
9BD4
  8
0
 10
0.5511811060000014
 20
-0.5905511850000023
 30
0.0
 11
0.0
 21
-0.5905511850000023
 31
0.0
  0
LINE
  5
9BD5
  8
0
 10
0.6397637837499987
 20
-0.7637795326000008
 30
0.0
 11
0.0
 21
-0.7637795326000008
 31
0.0
  0
LINE
  5
9BD6
  8
0
 10
0.2854330727499956
 20
-0.2440944897999984
 30
0.0
 11
0.0
 21
-0.2440944898000019
 31
0.0
  0
LINE
  5
9BD7
  8
0
 10
0.2322834661000002
 20
-0.3543307110000033
 30
0.0
 11
0.0
 21
-0.3543307110000033
 31
0.0
  0
LINE
  5
9BD8
  8
0
 10
0.4724409479999993
 20
0.0
 30
0.0
 11
0.2165354345000026
 21
0.0
 31
0.0
  0
LINE
  5
9BD9
  8
0
 10
0.5511811060000014
 20
-0.078740158000002
 30
0.0
 11
0.2854330727499956
 21
-0.078740158000002
 31
0.0
  0
LINE
  5
9BDA
  8
0
 10
0.5511811060000014
 20
-0.078740158000002
 30
0.0
 11
0.4724409479999993
 21
0.0
 31
0.0
  0
LINE
  5
9BDB
  8
0
 10
0.2165354345000026
 20
0.0
 30
0.0
 11
0.0
 21
0.0
 31
0.0
  0
LINE
  5
9BDD
  8
0
 10
0.5511811060000014
 20
-0.7637795326000008
 30
0.0
 11
0.5511811060000014
 21
-0.078740158000002
 31
0.0
  0
ARC
  5
9BDE
  8
0
 10
0.8366141787499968
 20
-0.8300048832353748
 30
0.0
 40
0.196850395
 50
180.0
 51
238.80906075878329
  0
LINE
  5
9BDF
  8
0
 10
0.6397637837499987
 20
-0.7637795326000008
 30
0.0
 11
0.6397637837499987
 21
-0.8300048832353748
 31
0.0
  0
LINE
  5
9BE0
  8
0
 10
0.7036406887248035
 20
-1.4714103863831469
 30
0.0
 11
1.0039370144999951
 21
-1.326771662300007
 31
0.0
  0
LINE
  5
9BE1
  8
0
 10
1.0433070935000031
 20
-1.732283475999981
 30
0.0
 11
0.0
 21
-1.732283475999995
 31
0.0
  0
LINE
  5
9BE2
  8
0
 10
0.7027445796628343
 20
-1.5596428151345649
 30
0.0
 11
1.0433070935000031
 21
-1.732283476000005
 31
0.0
  0
LINE
  5
9BE3
  8
0
 10
0.7027445796628343
 20
-1.5596428151345649
 30
0.0
 11
0.0
 21
-1.5596428151345649
 31
0.0
  0
LINE
  5
9BE4
  8
0
 10
0.7036406887248035
 20
-1.4714103863831469
 30
0.0
 11
0.0
 21
-1.4714103863831469
 31
0.0
  0
ARC
  5
9BE5
  8
0
 10
0.7249960677770986
 20
-1.5157480415000031
 30
0.0
 40
0.04921259875
 50
115.7179462364299
 51
179.99999999999949
  0
ARC
  5
9BE6
  8
0
 10
0.7249960677770986
 20
-1.5157480415000031
 30
0.0
 40
0.04921259875
 50
180.00000000000031
 51
243.11827525869921
  0
LINE
  5
9BE7
  8
0
 10
1.003937014500053
 20
-1.3267716622999819
 30
0.0
 11
0.0
 21
-1.3267716622999819
 31
0.0
  0
LINE
  5
9BE8
  8
0
 10
1.0039370144999951
 20
-1.161417330499982
 30
0.0
 11
0.0
 21
-1.161417330499986
 31
0.0
  0
LINE
  5
9BE9
  8
0
 10
0.7346669860438341
 20
-0.9983997997589669
 30
0.0
 11
1.0039370144999951
 21
-1.161417330499982
 31
0.0
  0
LINE
  5
9BEA
  8
0
 10
1.141732290999995
 20
-1.161417330499982
 30
0.0
 11
1.0039370144999951
 21
-1.161417330499982
 31
0.0
  0
LINE
  5
9BEB
  8
0
 10
1.141732290999995
 20
-1.161417330499982
 30
0.0
 11
1.141732290999995
 21
-1.3267716622999819
 31
0.0
  0
LINE
  5
9BEC
  8
0
 10
1.141732290999995
 20
-1.3267716622999819
 30
0.0
 11
1.003937014500053
 21
-1.3267716622999819
 31
0.0
  0
ENDSEC
  0
EOF
