  0
SECTION
  2
HEADER
  9
$ACADVER
  1
AC1009
  9
$INSBASE
 10
0.0
 20
0.0
 30
0.0
  9
$EXTMIN
 10
-0.1574803260000186
 20
-0.5196850427999922
 30
-0.00000001
  9
$EXTMAX
 10
0.1574803259999383
 20
0.1377952765000144
 30
0.00000001
  9
$LIMMIN
 10
0.0
 20
0.0
  9
$LIMMAX
 10
297.0
 20
210.0
  9
$ORTHOMODE
 70
     1
  9
$REGENMODE
 70
     1
  9
$FILLMODE
 70
     1
  9
$QTEXTMODE
 70
     0
  9
$MIRRTEXT
 70
     0
  9
$DRAGMODE
 70
     2
  9
$LTSCALE
 40
0.5
  9
$OSMODE
 70
     8
  9
$ATTMODE
 70
     1
  9
$TEXTSIZE
 40
0.156
  9
$TRACEWID
 40
0.05
  9
$TEXTSTYLE
  7
ROMANS
  9
$CLAYER
  8
0
  9
$CELTYPE
  6
BYLAYER
  9
$CECOLOR
 62
   256
  9
$DIMSCALE
 40
0.75
  9
$DIMASZ
 40
0.1
  9
$DIMEXO
 40
0.05
  9
$DIMDLI
 40
0.5
  9
$DIMRND
 40
0.0
  9
$DIMDLE
 40
0.0
  9
$DIMEXE
 40
0.1
  9
$DIMTP
 40
0.1
  9
$DIMTM
 40
0.1
  9
$DIMTXT
 40
0.12
  9
$DIMCEN
 40
0.0
  9
$DIMTSZ
 40
0.0
  9
$DIMTOL
 70
     0
  9
$DIMLIM
 70
     0
  9
$DIMTIH
 70
     1
  9
$DIMTOH
 70
     1
  9
$DIMSE1
 70
     0
  9
$DIMSE2
 70
     0
  9
$DIMTAD
 70
     0
  9
$DIMZIN
 70
     7
  9
$DIMBLK
  1

  9
$DIMASO
 70
     1
  9
$DIMSHO
 70
     1
  9
$DIMPOST
  1

  9
$DIMAPOST
  1
mm
  9
$DIMALT
 70
     0
  9
$DIMALTD
 70
     2
  9
$DIMALTF
 40
25.399999999999999
  9
$DIMLFAC
 40
1.0
  9
$DIMTOFL
 70
     0
  9
$DIMTVP
 40
0.0
  9
$DIMTIX
 70
     0
  9
$DIMSOXD
 70
     0
  9
$DIMSAH
 70
     0
  9
$DIMBLK1
  1

  9
$DIMBLK2
  1

  9
$DIMSTYLE
  2
AM_ANSI
  9
$DIMCLRD
 70
   256
  9
$DIMCLRE
 70
   256
  9
$DIMCLRT
 70
   256
  9
$DIMTFAC
 40
0.71
  9
$DIMGAP
 40
0.06
  9
$LUNITS
 70
     2
  9
$LUPREC
 70
     4
  9
$SKETCHINC
 40
0.1
  9
$FILLETRAD
 40
0.2
  9
$AUNITS
 70
     0
  9
$AUPREC
 70
     0
  9
$MENU
  1
.
  9
$ELEVATION
 40
0.0
  9
$PELEVATION
 40
0.0
  9
$THICKNESS
 40
0.0
  9
$LIMCHECK
 70
     0
  9
$BLIPMODE
 70
     0
  9
$CHAMFERA
 40
0.0
  9
$CHAMFERB
 40
0.0
  9
$SKPOLY
 70
     1
  9
$TDCREATE
 40
2450788.5131729161
  9
$TDUPDATE
 40
2453313.5716697332
  9
$TDINDWG
 40
5.2088713426000002
  9
$TDUSRTIMER
 40
5.2088713426000002
  9
$USRTIMER
 70
     1
  9
$ANGBASE
 50
0.0
  9
$ANGDIR
 70
     0
  9
$PDMODE
 70
     0
  9
$PDSIZE
 40
0.0
  9
$PLINEWID
 40
0.0
  9
$COORDS
 70
     0
  9
$SPLFRAME
 70
     0
  9
$SPLINETYPE
 70
     6
  9
$SPLINESEGS
 70
     8
  9
$ATTDIA
 70
     0
  9
$ATTREQ
 70
     1
  9
$HANDLING
 70
 12289
  9
$HANDSEED
  5
87A5
  9
$SURFTAB1
 70
     6
  9
$SURFTAB2
 70
     6
  9
$SURFTYPE
 70
     6
  9
$SURFU
 70
     6
  9
$SURFV
 70
     6
  9
$UCSNAME
  2

  9
$UCSORG
 10
0.0
 20
0.0
 30
0.0
  9
$UCSXDIR
 10
1.0
 20
0.0
 30
0.0
  9
$UCSYDIR
 10
0.0
 20
1.0
 30
0.0
  9
$PUCSNAME
  2

  9
$PUCSORG
 10
0.0
 20
0.0
 30
0.0
  9
$PUCSXDIR
 10
1.0
 20
0.0
 30
0.0
  9
$PUCSYDIR
 10
0.0
 20
1.0
 30
0.0
  9
$USERI1
 70
     0
  9
$USERI2
 70
     0
  9
$USERI3
 70
     0
  9
$USERI4
 70
     0
  9
$USERI5
 70
     0
  9
$USERR1
 40
0.0
  9
$USERR2
 40
0.0
  9
$USERR3
 40
0.0
  9
$USERR4
 40
0.0
  9
$USERR5
 40
0.0
  9
$WORLDVIEW
 70
     1
  9
$SHADEDGE
 70
     3
  9
$SHADEDIF
 70
    70
  9
$TILEMODE
 70
     1
  9
$MAXACTVP
 70
    48
  9
$PLIMCHECK
 70
     0
  9
$PEXTMIN
 10
1.0000000000000000E+020
 20
1.0000000000000000E+020
 30
1.0000000000000000E+020
  9
$PEXTMAX
 10
-1.0000000000000000E+020
 20
-1.0000000000000000E+020
 30
-1.0000000000000000E+020
  9
$PLIMMIN
 10
0.0
 20
0.0
  9
$PLIMMAX
 10
12.0
 20
9.0
  9
$UNITMODE
 70
     0
  9
$VISRETAIN
 70
     0
  9
$PLINEGEN
 70
     0
  9
$PSLTSCALE
 70
     1
  0
ENDSEC
  0
SECTION
  2
TABLES
  0
TABLE
  2
VPORT
 70
     3
  0
VPORT
  2
*ACTIVE
 70
     0
 10
0.0
 20
0.0
 11
1.0
 21
1.0
 12
-48.901039699093751
 22
-102.60430275115711
 13
0.0
 23
0.0
 14
0.01
 24
0.01
 15
350.0
 25
350.0
 16
0.0
 26
0.0
 36
1.0
 17
48.901039699093722
 27
102.4133578680072
 37
0.0
 40
1.328689368011702
 41
1.8430034129692829
 42
50.0
 43
0.0
 44
0.0
 50
0.0
 51
0.0
 71
     0
 72
 20000
 73
     1
 74
     0
 75
     0
 76
     0
 77
     0
 78
     0
  0
ENDTAB
  0
TABLE
  2
LTYPE
 70
    12
  0
LTYPE
  2
CONTINUOUS
 70
     0
  3
Solid line
 72
    65
 73
     0
 40
0.0
  0
LTYPE
  2
CENTER
 70
     0
  3
____ _ ____ _ ____ _ ____ _ ____ _ ____ _ ____ 
 72
    65
 73
     4
 40
2.0
 49
1.25
 49
-0.25
 49
0.25
 49
-0.25
  0
LTYPE
  2
HIDDEN
 70
     0
  3
__ __ __ __ __ __ __ __ __ __ __ __ __ __ __ __
 72
    65
 73
     2
 40
0.375
 49
0.25
 49
-0.125
  0
LTYPE
  2
PHANTOM2
 70
     0
  3
___ _ _ ___ _ _ ___ _ _ ___ _ _ ___ _ _ ___ _ _
 72
    65
 73
     6
 40
1.25
 49
0.625
 49
-0.125
 49
0.125
 49
-0.125
 49
0.125
 49
-0.125
  0
LTYPE
  2
AMCONSTR
 70
     0
  3
_______________________
 72
    65
 73
     2
 40
9999.0
 49
9999.0
 49
0.0
  0
LTYPE
  2
HIDDEN2
 70
     0
  3
_ _ _ _ _ _ _ _ _ _ _ _ _ _ _ _ _ _ _ _ _ _ _ _
 72
    65
 73
     2
 40
0.1875
 49
0.125
 49
-0.0625
  0
LTYPE
  2
CENTER2
 70
     0
  3
___ _ ___ _ ___ _ ___ _ ___ _ ___ _ ___ _ ___ _
 72
    65
 73
     4
 40
1.125
 49
0.75
 49
-0.125
 49
0.125
 49
-0.125
  0
LTYPE
  2
AMZIGZAG2
 70
     0
  3
/\/-/\/-/\/-/\/-/\/-/\/
 72
    65
 73
     2
 40
0.4401
 49
0.0001
 49
-0.4400000000000002
  0
LTYPE
  2
ASULTYPE
 70
     0
  3
Solid line
 72
    65
 73
     2
 40
3.0
 49
2.5
 49
0.5
  0
LTYPE
  2
ASVLTYPE
 70
     0
  3
__ __ __ __ __ __ __ __ __ __ __ __ __ __ __ __ __ __ __ __ __
 72
    65
 73
     2
 40
0.75
 49
0.5
 49
-0.25
  0
LTYPE
  2
ACANSTGB
 70
     0
  3
__ . . __ . .
 72
    65
 73
     6
 40
0.35433070866
 49
0.15748031496
 49
-0.03937007874
 49
0.03937007874
 49
-0.03937007874
 49
0.03937007874
 49
-0.03937007874
  0
LTYPE
  2
ACANSTGL
 70
     0
  3
_ _ _ _ _
 72
    65
 73
     2
 40
0.11811023622
 49
0.07874015748
 49
-0.03937007874
  0
ENDTAB
  0
TABLE
  2
LAYER
 70
     3
  0
LAYER
  2
0
 70
     0
 62
     7
  6
CONTINUOUS
  0
LAYER
  2
DEFPOINTS
 70
     0
 62
     7
  6
CONTINUOUS
  0
ENDTAB
  0
TABLE
  2
STYLE
 70
     6
  0
STYLE
  2
STANDARD
 70
     0
 40
0.0
 41
1.0
 50
0.0
 71
     0
 42
600.0
  3
txt
  4

  0
STYLE
  2
ROMANS
 70
     0
 40
0.0
 41
1.0
 50
0.0
 71
     0
 42
0.156
  3
romans.shx
  4

  0
STYLE
  2
GHS
 70
     0
 40
0.0
 41
0.8
 50
0.0
 71
     0
 42
0.2
  3
romans.shx
  4
ghs.shx
  0
STYLE
  2

 70
     1
 40
0.0
 41
1.0
 50
0.0
 71
     0
 42
0.156
  3
ltypeshp.shx
  4

  0
STYLE
  2
ACANSTS
 70
     0
 40
1.0
 41
1.0
 50
0.0
 71
     0
 42
0.156
  3
romans.shx
  4

  0
STYLE
  2
ACANSGDT
 70
     0
 40
0.0
 41
1.0
 50
0.0
 71
     0
 42
0.156
  3
amgdtans.shx
  4

  0
ENDTAB
  0
TABLE
  2
VIEW
 70
     0
  0
ENDTAB
  0
TABLE
  2
UCS
 70
     0
  0
ENDTAB
  0
TABLE
  2
APPID
 70
    16
  0
APPID
  2
ACAD
 70
     0
  0
APPID
  2
AD_DRAW
 70
     0
  0
APPID
  2
DESIGNERASSEMBLIES
 70
     0
  0
APPID
  2
MCAD_NO_VIS
 70
     0
  0
APPID
  2
ASURF_PCURVE_APPNAME
 70
     0
  0
APPID
  2
GENIUS_GENDIM_13
 70
     0
  0
APPID
  2
GENIUS_GENDTOL_13
 70
     0
  0
APPID
  2
GENIUS_GE3DTOL_13
 70
     0
  0
APPID
  2
ACAD_TEMP_GRAPHIC
 70
     0
  0
APPID
  2
ACATTRIBSERVICES
 70
     0
  0
APPID
  2
ACADM_DIM_EDIT
 70
     0
  0
APPID
  2
AD_SKETCHDIM
 70
     0
  0
APPID
  2
GENIUS_GENDIMSH_14
 70
     0
  0
APPID
  2
AMG_3D2D_5_0
 70
     0
  0
APPID
  2
AMDT_DM_ADJ
 70
     0
  0
APPID
  2
DCO15
 70
     0
  0
ENDTAB
  0
TABLE
  2
DIMSTYLE
 70
     8
  0
DIMSTYLE
  2
STANDARD
 70
     0
  3

  4

  5

  6
OPEN
  7
OPEN
 40
1.0
 41
3.0
 42
1.0
 43
0.38
 44
0.8
 45
0.0
 46
0.0
 47
0.1
 48
0.1
140
3.0
141
0.09
142
0.0
143
25.399999999999999
144
1.0
145
0.0
146
1.0
147
1.0
 71
     0
 72
     0
 73
     0
 74
     0
 75
     0
 76
     0
 77
     1
 78
     9
170
     0
171
     2
172
     1
173
     1
174
     0
175
     0
176
   256
177
   256
178
   256
  0
DIMSTYLE
  2
AM_ANSI
 70
     0
  3

  4
mm
  5

  6

  7

 40
0.75
 41
0.1
 42
0.05
 43
0.5
 44
0.1
 45
0.0
 46
0.0
 47
0.1
 48
0.1
140
0.12
141
0.0
142
0.0
143
25.399999999999999
144
1.0
145
0.0
146
0.71
147
0.06
 71
     0
 72
     0
 73
     1
 74
     1
 75
     0
 76
     0
 77
     0
 78
     7
170
     0
171
     2
172
     0
173
     0
174
     0
175
     0
176
   256
177
   256
178
   256
  0
DIMSTYLE
  2
AM_ANSI$3
 70
     0
  3

  4
mm
  5

  6

  7

 40
0.75
 41
0.1
 42
0.05
 43
0.5
 44
0.1
 45
0.0
 46
0.0
 47
0.1
 48
0.1
140
0.12
141
0.0
142
0.0
143
25.399999999999999
144
1.0
145
0.0
146
0.71
147
0.06
 71
     0
 72
     0
 73
     1
 74
     1
 75
     0
 76
     0
 77
     0
 78
     7
170
     0
171
     2
172
     0
173
     0
174
     0
175
     0
176
   256
177
   256
178
   256
  0
DIMSTYLE
  2
AM_ANSI$4
 70
     0
  3

  4
mm
  5

  6

  7

 40
0.75
 41
0.1
 42
0.05
 43
0.5
 44
0.1
 45
0.0
 46
0.0
 47
0.1
 48
0.1
140
0.12
141
0.0
142
0.0
143
25.399999999999999
144
1.0
145
0.0
146
0.71
147
0.06
 71
     0
 72
     0
 73
     1
 74
     1
 75
     0
 76
     0
 77
     0
 78
     7
170
     0
171
     2
172
     0
173
     0
174
     0
175
     0
176
   256
177
   256
178
   256
  0
DIMSTYLE
  2
AM_ANSI$6
 70
     0
  3

  4
mm
  5

  6

  7

 40
0.75
 41
0.1
 42
0.05
 43
0.5
 44
0.1
 45
0.0
 46
0.0
 47
0.1
 48
0.1
140
0.12
141
0.0
142
0.0
143
25.399999999999999
144
1.0
145
0.0
146
0.71
147
0.06
 71
     0
 72
     0
 73
     1
 74
     1
 75
     0
 76
     0
 77
     0
 78
     7
170
     0
171
     2
172
     0
173
     0
174
     0
175
     0
176
   256
177
   256
178
   256
  0
DIMSTYLE
  2
AM_ANSI$7
 70
     0
  3

  4
mm
  5

  6

  7

 40
0.75
 41
0.1
 42
0.05
 43
0.5
 44
0.1
 45
0.0
 46
0.0
 47
0.1
 48
0.1
140
0.12
141
0.0
142
0.0
143
25.399999999999999
144
1.0
145
0.0
146
0.71
147
0.06
 71
     0
 72
     0
 73
     1
 74
     1
 75
     0
 76
     0
 77
     0
 78
     7
170
     0
171
     2
172
     0
173
     0
174
     0
175
     0
176
   256
177
   256
178
   256
  0
DIMSTYLE
  2
AM_ANSI$SF
 70
     0
  3

  4
mm
  5

  6

  7

 40
1.0
 41
0.1
 42
0.05
 43
0.5
 44
0.1
 45
0.0
 46
0.0
 47
0.1
 48
0.1
140
0.12
141
0.0
142
0.0
143
25.399999999999999
144
1.0
145
0.0
146
0.71
147
0.06
 71
     0
 72
     0
 73
     1
 74
     1
 75
     1
 76
     1
 77
     0
 78
     7
170
     0
171
     2
172
     0
173
     0
174
     0
175
     0
176
   256
177
   256
178
     2
  0
DIMSTYLE
  2
AM_ANSI$SH
 70
     0
  3

  4
mm
  5

  6
GENAXEH
  7

 40
1.0
 41
0.1
 42
0.05
 43
0.5
 44
0.1
 45
0.0
 46
0.0
 47
0.1
 48
0.1
140
0.12
141
0.0
142
0.0
143
25.399999999999999
144
1.0
145
0.0
146
0.71
147
0.06
 71
     0
 72
     0
 73
     1
 74
     1
 75
     1
 76
     1
 77
     0
 78
     7
170
     0
171
     2
172
     0
173
     1
174
     0
175
     0
176
   256
177
   256
178
     2
  0
ENDTAB
  0
ENDSEC
  0
SECTION
  2
BLOCKS
  0
BLOCK
  8
0
  2
$MODEL_SPACE
 70
     0
 10
0.0
 20
0.0
 30
0.0
  3
$MODEL_SPACE
  1

  0
ENDBLK
  5
6
  8
0
  0
BLOCK
 67
     1
  8
0
  2
$PAPER_SPACE
 70
     0
 10
0.0
 20
0.0
 30
0.0
  3
$PAPER_SPACE
  1

  0
ENDBLK
  5
9
 67
     1
  8
0
  0
BLOCK
  8
0
  2
_OPEN
 70
     0
 10
0.0
 20
0.0
 30
0.0
  3
_OPEN
  1

  0
LINE
  5
20
  8
0
  6
BYBLOCK
 62
     0
 10
-1.0
 20
0.1666666666666666
 30
0.0
 11
0.0
 21
0.0
 31
0.0
  0
LINE
  5
21
  8
0
  6
BYBLOCK
 62
     0
 10
0.0
 20
0.0
 30
0.0
 11
-1.0
 21
-0.1666666666666666
 31
0.0
  0
LINE
  5
22
  8
0
  6
BYBLOCK
 62
     0
 10
0.0
 20
0.0
 30
0.0
 11
-1.0
 21
0.0
 31
0.0
  0
ENDBLK
  5
24
  8
0
  0
BLOCK
  8
0
  2
GENAXEH
 70
     0
 10
0.0
 20
0.0
 30
0.0
  3
GENAXEH
  1

  0
LINE
  5
8267
  8
0
 10
-1.0
 20
0.0
 30
0.0
 11
1.0
 21
0.0
 31
0.0
  0
ENDBLK
  5
8268
  8
0
  0
ENDSEC
  0
SECTION
  2
ENTITIES
  0
LINE
  5
75DD
  8
0
 10
-0.0000000000000568
 20
0.1377952765000002
 30
0.0
 11
0.0787401579999454
 21
0.1377952765000002
 31
0.0
  0
LINE
  5
75EE
  8
0
 10
0.0787401579999454
 20
-0.1377952765000004
 30
0.0
 11
0.0787401579999454
 21
-0.0393700789999941
 31
0.0
  0
LINE
  5
75EF
  8
0
 10
0.1574803159999405
 20
-0.1377952765000004
 30
0.0
 11
0.1574803159999476
 21
-0.0393700789999941
 31
0.0
  0
POLYLINE
  5
75F0
  8
0
 10
0.0787401579999405
 20
-0.1377952765000004
 30
0.0
 66
     1
 70
     8
  0
VERTEX
  8
0
  5
859D
 10
0.0787402
 20
-0.137795
 30
0.000000
  70
    32
  0
VERTEX
  8
0
  5
859E
 10
0.0787520
 20
-0.138278
 30
0.000000
  70
    32
  0
VERTEX
  8
0
  5
859F
 10
0.0787876
 20
-0.138761
 30
0.000000
  70
    32
  0
VERTEX
  8
0
  5
85A0
 10
0.0788468
 20
-0.139243
 30
0.000000
  70
    32
  0
VERTEX
  8
0
  5
85A1
 10
0.0789297
 20
-0.139725
 30
0.000000
  70
    32
  0
VERTEX
  8
0
  5
85A2
 10
0.0790362
 20
-0.140205
 30
0.000000
  70
    32
  0
VERTEX
  8
0
  5
85A3
 10
0.0791663
 20
-0.140684
 30
0.000000
  70
    32
  0
VERTEX
  8
0
  5
85A4
 10
0.0793198
 20
-0.141161
 30
0.000000
  70
    32
  0
VERTEX
  8
0
  5
85A5
 10
0.0794966
 20
-0.141636
 30
0.000000
  70
    32
  0
VERTEX
  8
0
  5
85A6
 10
0.0796968
 20
-0.142108
 30
0.000000
  70
    32
  0
VERTEX
  8
0
  5
85A7
 10
0.0799200
 20
-0.142578
 30
0.000000
  70
    32
  0
VERTEX
  8
0
  5
85A8
 10
0.0801663
 20
-0.143046
 30
0.000000
  70
    32
  0
VERTEX
  8
0
  5
85A9
 10
0.0804354
 20
-0.143510
 30
0.000000
  70
    32
  0
VERTEX
  8
0
  5
85AA
 10
0.0807272
 20
-0.143970
 30
0.000000
  70
    32
  0
VERTEX
  8
0
  5
85AB
 10
0.0810416
 20
-0.144427
 30
0.000000
  70
    32
  0
VERTEX
  8
0
  5
85AC
 10
0.0813782
 20
-0.144880
 30
0.000000
  70
    32
  0
VERTEX
  8
0
  5
85AD
 10
0.0817370
 20
-0.145328
 30
0.000000
  70
    32
  0
VERTEX
  8
0
  5
85AE
 10
0.0821177
 20
-0.145772
 30
0.000000
  70
    32
  0
VERTEX
  8
0
  5
85AF
 10
0.0825201
 20
-0.146212
 30
0.000000
  70
    32
  0
VERTEX
  8
0
  5
85B0
 10
0.0829439
 20
-0.146646
 30
0.000000
  70
    32
  0
VERTEX
  8
0
  5
85B1
 10
0.0833889
 20
-0.147075
 30
0.000000
  70
    32
  0
VERTEX
  8
0
  5
85B2
 10
0.0838548
 20
-0.147498
 30
0.000000
  70
    32
  0
VERTEX
  8
0
  5
85B3
 10
0.0843414
 20
-0.147915
 30
0.000000
  70
    32
  0
VERTEX
  8
0
  5
85B4
 10
0.0848483
 20
-0.148327
 30
0.000000
  70
    32
  0
VERTEX
  8
0
  5
85B5
 10
0.0853752
 20
-0.148732
 30
0.000000
  70
    32
  0
VERTEX
  8
0
  5
85B6
 10
0.0859219
 20
-0.149130
 30
0.000000
  70
    32
  0
VERTEX
  8
0
  5
85B7
 10
0.0864879
 20
-0.149522
 30
0.000000
  70
    32
  0
VERTEX
  8
0
  5
85B8
 10
0.0870730
 20
-0.149906
 30
0.000000
  70
    32
  0
VERTEX
  8
0
  5
85B9
 10
0.0876768
 20
-0.150283
 30
0.000000
  70
    32
  0
VERTEX
  8
0
  5
85BA
 10
0.0882989
 20
-0.150653
 30
0.000000
  70
    32
  0
VERTEX
  8
0
  5
85BB
 10
0.0889389
 20
-0.151015
 30
0.000000
  70
    32
  0
VERTEX
  8
0
  5
85BC
 10
0.0895966
 20
-0.151369
 30
0.000000
  70
    32
  0
VERTEX
  8
0
  5
85BD
 10
0.0902714
 20
-0.151715
 30
0.000000
  70
    32
  0
VERTEX
  8
0
  5
85BE
 10
0.0909630
 20
-0.152052
 30
0.000000
  70
    32
  0
VERTEX
  8
0
  5
85BF
 10
0.0916709
 20
-0.152381
 30
0.000000
  70
    32
  0
VERTEX
  8
0
  5
85C0
 10
0.0923948
 20
-0.152701
 30
0.000000
  70
    32
  0
VERTEX
  8
0
  5
85C1
 10
0.0931341
 20
-0.153012
 30
0.000000
  70
    32
  0
VERTEX
  8
0
  5
85C2
 10
0.0938885
 20
-0.153314
 30
0.000000
  70
    32
  0
VERTEX
  8
0
  5
85C3
 10
0.0946575
 20
-0.153606
 30
0.000000
  70
    32
  0
VERTEX
  8
0
  5
85C4
 10
0.0954406
 20
-0.153889
 30
0.000000
  70
    32
  0
VERTEX
  8
0
  5
85C5
 10
0.0962374
 20
-0.154163
 30
0.000000
  70
    32
  0
VERTEX
  8
0
  5
85C6
 10
0.0970473
 20
-0.154426
 30
0.000000
  70
    32
  0
VERTEX
  8
0
  5
85C7
 10
0.0978700
 20
-0.154680
 30
0.000000
  70
    32
  0
VERTEX
  8
0
  5
85C8
 10
0.0987048
 20
-0.154923
 30
0.000000
  70
    32
  0
VERTEX
  8
0
  5
85C9
 10
0.0995513
 20
-0.155156
 30
0.000000
  70
    32
  0
VERTEX
  8
0
  5
85CA
 10
0.100409
 20
-0.155378
 30
0.000000
  70
    32
  0
VERTEX
  8
0
  5
85CB
 10
0.101277
 20
-0.155590
 30
0.000000
  70
    32
  0
VERTEX
  8
0
  5
85CC
 10
0.102156
 20
-0.155792
 30
0.000000
  70
    32
  0
VERTEX
  8
0
  5
85CD
 10
0.103044
 20
-0.155982
 30
0.000000
  70
    32
  0
VERTEX
  8
0
  5
85CE
 10
0.103941
 20
-0.156161
 30
0.000000
  70
    32
  0
VERTEX
  8
0
  5
85CF
 10
0.104847
 20
-0.156330
 30
0.000000
  70
    32
  0
VERTEX
  8
0
  5
85D0
 10
0.105761
 20
-0.156487
 30
0.000000
  70
    32
  0
VERTEX
  8
0
  5
85D1
 10
0.106682
 20
-0.156633
 30
0.000000
  70
    32
  0
VERTEX
  8
0
  5
85D2
 10
0.107610
 20
-0.156767
 30
0.000000
  70
    32
  0
VERTEX
  8
0
  5
85D3
 10
0.108544
 20
-0.156890
 30
0.000000
  70
    32
  0
VERTEX
  8
0
  5
85D4
 10
0.109484
 20
-0.157002
 30
0.000000
  70
    32
  0
VERTEX
  8
0
  5
85D5
 10
0.110430
 20
-0.157102
 30
0.000000
  70
    32
  0
VERTEX
  8
0
  5
85D6
 10
0.111379
 20
-0.157191
 30
0.000000
  70
    32
  0
VERTEX
  8
0
  5
85D7
 10
0.112333
 20
-0.157267
 30
0.000000
  70
    32
  0
VERTEX
  8
0
  5
85D8
 10
0.113291
 20
-0.157332
 30
0.000000
  70
    32
  0
VERTEX
  8
0
  5
85D9
 10
0.114251
 20
-0.157386
 30
0.000000
  70
    32
  0
VERTEX
  8
0
  5
85DA
 10
0.115214
 20
-0.157427
 30
0.000000
  70
    32
  0
VERTEX
  8
0
  5
85DB
 10
0.116178
 20
-0.157457
 30
0.000000
  70
    32
  0
VERTEX
  8
0
  5
85DC
 10
0.117144
 20
-0.157474
 30
0.000000
  70
    32
  0
VERTEX
  8
0
  5
85DD
 10
0.118110
 20
-0.157480
 30
0.000000
  70
    32
  0
VERTEX
  8
0
  5
85DE
 10
0.119076
 20
-0.157474
 30
0.000000
  70
    32
  0
VERTEX
  8
0
  5
85DF
 10
0.120042
 20
-0.157457
 30
0.000000
  70
    32
  0
VERTEX
  8
0
  5
85E0
 10
0.121006
 20
-0.157427
 30
0.000000
  70
    32
  0
VERTEX
  8
0
  5
85E1
 10
0.121969
 20
-0.157386
 30
0.000000
  70
    32
  0
VERTEX
  8
0
  5
85E2
 10
0.122930
 20
-0.157332
 30
0.000000
  70
    32
  0
VERTEX
  8
0
  5
85E3
 10
0.123887
 20
-0.157267
 30
0.000000
  70
    32
  0
VERTEX
  8
0
  5
85E4
 10
0.124841
 20
-0.157191
 30
0.000000
  70
    32
  0
VERTEX
  8
0
  5
85E5
 10
0.125791
 20
-0.157102
 30
0.000000
  70
    32
  0
VERTEX
  8
0
  5
85E6
 10
0.126736
 20
-0.157002
 30
0.000000
  70
    32
  0
VERTEX
  8
0
  5
85E7
 10
0.127676
 20
-0.156890
 30
0.000000
  70
    32
  0
VERTEX
  8
0
  5
85E8
 10
0.128611
 20
-0.156767
 30
0.000000
  70
    32
  0
VERTEX
  8
0
  5
85E9
 10
0.129539
 20
-0.156633
 30
0.000000
  70
    32
  0
VERTEX
  8
0
  5
85EA
 10
0.130460
 20
-0.156487
 30
0.000000
  70
    32
  0
VERTEX
  8
0
  5
85EB
 10
0.131374
 20
-0.156330
 30
0.000000
  70
    32
  0
VERTEX
  8
0
  5
85EC
 10
0.132279
 20
-0.156161
 30
0.000000
  70
    32
  0
VERTEX
  8
0
  5
85ED
 10
0.133177
 20
-0.155982
 30
0.000000
  70
    32
  0
VERTEX
  8
0
  5
85EE
 10
0.134065
 20
-0.155792
 30
0.000000
  70
    32
  0
VERTEX
  8
0
  5
85EF
 10
0.134943
 20
-0.155590
 30
0.000000
  70
    32
  0
VERTEX
  8
0
  5
85F0
 10
0.135811
 20
-0.155378
 30
0.000000
  70
    32
  0
VERTEX
  8
0
  5
85F1
 10
0.136669
 20
-0.155156
 30
0.000000
  70
    32
  0
VERTEX
  8
0
  5
85F2
 10
0.137516
 20
-0.154923
 30
0.000000
  70
    32
  0
VERTEX
  8
0
  5
85F3
 10
0.138351
 20
-0.154680
 30
0.000000
  70
    32
  0
VERTEX
  8
0
  5
85F4
 10
0.139173
 20
-0.154426
 30
0.000000
  70
    32
  0
VERTEX
  8
0
  5
85F5
 10
0.139983
 20
-0.154163
 30
0.000000
  70
    32
  0
VERTEX
  8
0
  5
85F6
 10
0.140780
 20
-0.153889
 30
0.000000
  70
    32
  0
VERTEX
  8
0
  5
85F7
 10
0.141563
 20
-0.153606
 30
0.000000
  70
    32
  0
VERTEX
  8
0
  5
85F8
 10
0.142332
 20
-0.153314
 30
0.000000
  70
    32
  0
VERTEX
  8
0
  5
85F9
 10
0.143086
 20
-0.153012
 30
0.000000
  70
    32
  0
VERTEX
  8
0
  5
85FA
 10
0.143826
 20
-0.152701
 30
0.000000
  70
    32
  0
VERTEX
  8
0
  5
85FB
 10
0.144550
 20
-0.152381
 30
0.000000
  70
    32
  0
VERTEX
  8
0
  5
85FC
 10
0.145258
 20
-0.152052
 30
0.000000
  70
    32
  0
VERTEX
  8
0
  5
85FD
 10
0.145949
 20
-0.151715
 30
0.000000
  70
    32
  0
VERTEX
  8
0
  5
85FE
 10
0.146624
 20
-0.151369
 30
0.000000
  70
    32
  0
VERTEX
  8
0
  5
85FF
 10
0.147282
 20
-0.151015
 30
0.000000
  70
    32
  0
VERTEX
  8
0
  5
8600
 10
0.147922
 20
-0.150653
 30
0.000000
  70
    32
  0
VERTEX
  8
0
  5
8601
 10
0.148544
 20
-0.150283
 30
0.000000
  70
    32
  0
VERTEX
  8
0
  5
8602
 10
0.149147
 20
-0.149906
 30
0.000000
  70
    32
  0
VERTEX
  8
0
  5
8603
 10
0.149733
 20
-0.149522
 30
0.000000
  70
    32
  0
VERTEX
  8
0
  5
8604
 10
0.150299
 20
-0.149130
 30
0.000000
  70
    32
  0
VERTEX
  8
0
  5
8605
 10
0.150845
 20
-0.148732
 30
0.000000
  70
    32
  0
VERTEX
  8
0
  5
8606
 10
0.151372
 20
-0.148327
 30
0.000000
  70
    32
  0
VERTEX
  8
0
  5
8607
 10
0.151879
 20
-0.147915
 30
0.000000
  70
    32
  0
VERTEX
  8
0
  5
8608
 10
0.152366
 20
-0.147498
 30
0.000000
  70
    32
  0
VERTEX
  8
0
  5
8609
 10
0.152832
 20
-0.147075
 30
0.000000
  70
    32
  0
VERTEX
  8
0
  5
860A
 10
0.153277
 20
-0.146646
 30
0.000000
  70
    32
  0
VERTEX
  8
0
  5
860B
 10
0.153700
 20
-0.146212
 30
0.000000
  70
    32
  0
VERTEX
  8
0
  5
860C
 10
0.154103
 20
-0.145772
 30
0.000000
  70
    32
  0
VERTEX
  8
0
  5
860D
 10
0.154483
 20
-0.145328
 30
0.000000
  70
    32
  0
VERTEX
  8
0
  5
860E
 10
0.154842
 20
-0.144880
 30
0.000000
  70
    32
  0
VERTEX
  8
0
  5
860F
 10
0.155179
 20
-0.144427
 30
0.000000
  70
    32
  0
VERTEX
  8
0
  5
8610
 10
0.155493
 20
-0.143970
 30
0.000000
  70
    32
  0
VERTEX
  8
0
  5
8611
 10
0.155785
 20
-0.143510
 30
0.000000
  70
    32
  0
VERTEX
  8
0
  5
8612
 10
0.156054
 20
-0.143046
 30
0.000000
  70
    32
  0
VERTEX
  8
0
  5
8613
 10
0.156300
 20
-0.142578
 30
0.000000
  70
    32
  0
VERTEX
  8
0
  5
8614
 10
0.156524
 20
-0.142108
 30
0.000000
  70
    32
  0
VERTEX
  8
0
  5
8615
 10
0.156724
 20
-0.141636
 30
0.000000
  70
    32
  0
VERTEX
  8
0
  5
8616
 10
0.156901
 20
-0.141161
 30
0.000000
  70
    32
  0
VERTEX
  8
0
  5
8617
 10
0.157054
 20
-0.140684
 30
0.000000
  70
    32
  0
VERTEX
  8
0
  5
8618
 10
0.157184
 20
-0.140205
 30
0.000000
  70
    32
  0
VERTEX
  8
0
  5
8619
 10
0.157291
 20
-0.139725
 30
0.000000
  70
    32
  0
VERTEX
  8
0
  5
861A
 10
0.157374
 20
-0.139243
 30
0.000000
  70
    32
  0
VERTEX
  8
0
  5
861B
 10
0.157433
 20
-0.138761
 30
0.000000
  70
    32
  0
VERTEX
  8
0
  5
861C
 10
0.157468
 20
-0.138278
 30
0.000000
  70
    32
  0
VERTEX
  8
0
  5
861D
 10
0.157480
 20
-0.137795
 30
0.000000
  70
    32
  0
SEQEND
  8
0
  5
861E
  0
LINE
  5
75F1
  8
0
 10
0.0787401579999454
 20
-0.1574803160000046
 30
0.0
 11
0.1181102369999536
 21
-0.1574803160000046
 31
0.0
  0
POLYLINE
  5
75F2
  8
0
 10
-0.0000000000000573
 20
-0.1574803160000027
 30
0.0
 66
     1
 70
     8
  0
VERTEX
  8
0
  5
861F
 10
-5.72823e-014
 20
-0.157480
 30
0.000000
  70
    32
  0
VERTEX
  8
0
  5
8620
 10
0.000966263
 20
-0.157479
 30
0.000000
  70
    32
  0
VERTEX
  8
0
  5
8621
 10
0.00193238
 20
-0.157474
 30
0.000000
  70
    32
  0
VERTEX
  8
0
  5
8622
 10
0.00289821
 20
-0.157467
 30
0.000000
  70
    32
  0
VERTEX
  8
0
  5
8623
 10
0.00386360
 20
-0.157457
 30
0.000000
  70
    32
  0
VERTEX
  8
0
  5
8624
 10
0.00482840
 20
-0.157443
 30
0.000000
  70
    32
  0
VERTEX
  8
0
  5
8625
 10
0.00579249
 20
-0.157427
 30
0.000000
  70
    32
  0
VERTEX
  8
0
  5
8626
 10
0.00675569
 20
-0.157408
 30
0.000000
  70
    32
  0
VERTEX
  8
0
  5
8627
 10
0.00771789
 20
-0.157386
 30
0.000000
  70
    32
  0
VERTEX
  8
0
  5
8628
 10
0.00867891
 20
-0.157360
 30
0.000000
  70
    32
  0
VERTEX
  8
0
  5
8629
 10
0.00963864
 20
-0.157332
 30
0.000000
  70
    32
  0
VERTEX
  8
0
  5
862A
 10
0.0105969
 20
-0.157301
 30
0.000000
  70
    32
  0
VERTEX
  8
0
  5
862B
 10
0.0115536
 20
-0.157267
 30
0.000000
  70
    32
  0
VERTEX
  8
0
  5
862C
 10
0.0125085
 20
-0.157230
 30
0.000000
  70
    32
  0
VERTEX
  8
0
  5
862D
 10
0.0134616
 20
-0.157191
 30
0.000000
  70
    32
  0
VERTEX
  8
0
  5
862E
 10
0.0144126
 20
-0.157148
 30
0.000000
  70
    32
  0
VERTEX
  8
0
  5
862F
 10
0.0153614
 20
-0.157102
 30
0.000000
  70
    32
  0
VERTEX
  8
0
  5
8630
 10
0.0163080
 20
-0.157053
 30
0.000000
  70
    32
  0
VERTEX
  8
0
  5
8631
 10
0.0172521
 20
-0.157002
 30
0.000000
  70
    32
  0
VERTEX
  8
0
  5
8632
 10
0.0181936
 20
-0.156948
 30
0.000000
  70
    32
  0
VERTEX
  8
0
  5
8633
 10
0.0191323
 20
-0.156890
 30
0.000000
  70
    32
  0
VERTEX
  8
0
  5
8634
 10
0.0200682
 20
-0.156830
 30
0.000000
  70
    32
  0
VERTEX
  8
0
  5
8635
 10
0.0210010
 20
-0.156767
 30
0.000000
  70
    32
  0
VERTEX
  8
0
  5
8636
 10
0.0219307
 20
-0.156701
 30
0.000000
  70
    32
  0
VERTEX
  8
0
  5
8637
 10
0.0228571
 20
-0.156633
 30
0.000000
  70
    32
  0
VERTEX
  8
0
  5
8638
 10
0.0237800
 20
-0.156561
 30
0.000000
  70
    32
  0
VERTEX
  8
0
  5
8639
 10
0.0246993
 20
-0.156487
 30
0.000000
  70
    32
  0
VERTEX
  8
0
  5
863A
 10
0.0256150
 20
-0.156410
 30
0.000000
  70
    32
  0
VERTEX
  8
0
  5
863B
 10
0.0265268
 20
-0.156330
 30
0.000000
  70
    32
  0
VERTEX
  8
0
  5
863C
 10
0.0274345
 20
-0.156247
 30
0.000000
  70
    32
  0
VERTEX
  8
0
  5
863D
 10
0.0283382
 20
-0.156161
 30
0.000000
  70
    32
  0
VERTEX
  8
0
  5
863E
 10
0.0292376
 20
-0.156073
 30
0.000000
  70
    32
  0
VERTEX
  8
0
  5
863F
 10
0.0301326
 20
-0.155982
 30
0.000000
  70
    32
  0
VERTEX
  8
0
  5
8640
 10
0.0310230
 20
-0.155888
 30
0.000000
  70
    32
  0
VERTEX
  8
0
  5
8641
 10
0.0319088
 20
-0.155792
 30
0.000000
  70
    32
  0
VERTEX
  8
0
  5
8642
 10
0.0327897
 20
-0.155692
 30
0.000000
  70
    32
  0
VERTEX
  8
0
  5
8643
 10
0.0336658
 20
-0.155590
 30
0.000000
  70
    32
  0
VERTEX
  8
0
  5
8644
 10
0.0345367
 20
-0.155486
 30
0.000000
  70
    32
  0
VERTEX
  8
0
  5
8645
 10
0.0354025
 20
-0.155378
 30
0.000000
  70
    32
  0
VERTEX
  8
0
  5
8646
 10
0.0362629
 20
-0.155268
 30
0.000000
  70
    32
  0
VERTEX
  8
0
  5
8647
 10
0.0371179
 20
-0.155156
 30
0.000000
  70
    32
  0
VERTEX
  8
0
  5
8648
 10
0.0379672
 20
-0.155041
 30
0.000000
  70
    32
  0
VERTEX
  8
0
  5
8649
 10
0.0388109
 20
-0.154923
 30
0.000000
  70
    32
  0
VERTEX
  8
0
  5
864A
 10
0.0396487
 20
-0.154803
 30
0.000000
  70
    32
  0
VERTEX
  8
0
  5
864B
 10
0.0404805
 20
-0.154680
 30
0.000000
  70
    32
  0
VERTEX
  8
0
  5
864C
 10
0.0413063
 20
-0.154554
 30
0.000000
  70
    32
  0
VERTEX
  8
0
  5
864D
 10
0.0421258
 20
-0.154426
 30
0.000000
  70
    32
  0
VERTEX
  8
0
  5
864E
 10
0.0429390
 20
-0.154296
 30
0.000000
  70
    32
  0
VERTEX
  8
0
  5
864F
 10
0.0437457
 20
-0.154163
 30
0.000000
  70
    32
  0
VERTEX
  8
0
  5
8650
 10
0.0445458
 20
-0.154027
 30
0.000000
  70
    32
  0
VERTEX
  8
0
  5
8651
 10
0.0453392
 20
-0.153889
 30
0.000000
  70
    32
  0
VERTEX
  8
0
  5
8652
 10
0.0461258
 20
-0.153749
 30
0.000000
  70
    32
  0
VERTEX
  8
0
  5
8653
 10
0.0469055
 20
-0.153606
 30
0.000000
  70
    32
  0
VERTEX
  8
0
  5
8654
 10
0.0476780
 20
-0.153461
 30
0.000000
  70
    32
  0
VERTEX
  8
0
  5
8655
 10
0.0484434
 20
-0.153314
 30
0.000000
  70
    32
  0
VERTEX
  8
0
  5
8656
 10
0.0492015
 20
-0.153164
 30
0.000000
  70
    32
  0
VERTEX
  8
0
  5
8657
 10
0.0499522
 20
-0.153012
 30
0.000000
  70
    32
  0
VERTEX
  8
0
  5
8658
 10
0.0506954
 20
-0.152858
 30
0.000000
  70
    32
  0
VERTEX
  8
0
  5
8659
 10
0.0514309
 20
-0.152701
 30
0.000000
  70
    32
  0
VERTEX
  8
0
  5
865A
 10
0.0521587
 20
-0.152542
 30
0.000000
  70
    32
  0
VERTEX
  8
0
  5
865B
 10
0.0528787
 20
-0.152381
 30
0.000000
  70
    32
  0
VERTEX
  8
0
  5
865C
 10
0.0535906
 20
-0.152218
 30
0.000000
  70
    32
  0
VERTEX
  8
0
  5
865D
 10
0.0542945
 20
-0.152052
 30
0.000000
  70
    32
  0
VERTEX
  8
0
  5
865E
 10
0.0549903
 20
-0.151884
 30
0.000000
  70
    32
  0
VERTEX
  8
0
  5
865F
 10
0.0556777
 20
-0.151715
 30
0.000000
  70
    32
  0
VERTEX
  8
0
  5
8660
 10
0.0563568
 20
-0.151543
 30
0.000000
  70
    32
  0
VERTEX
  8
0
  5
8661
 10
0.0570273
 20
-0.151369
 30
0.000000
  70
    32
  0
VERTEX
  8
0
  5
8662
 10
0.0576893
 20
-0.151193
 30
0.000000
  70
    32
  0
VERTEX
  8
0
  5
8663
 10
0.0583426
 20
-0.151015
 30
0.000000
  70
    32
  0
VERTEX
  8
0
  5
8664
 10
0.0589871
 20
-0.150835
 30
0.000000
  70
    32
  0
VERTEX
  8
0
  5
8665
 10
0.0596227
 20
-0.150653
 30
0.000000
  70
    32
  0
VERTEX
  8
0
  5
8666
 10
0.0602494
 20
-0.150469
 30
0.000000
  70
    32
  0
VERTEX
  8
0
  5
8667
 10
0.0608670
 20
-0.150283
 30
0.000000
  70
    32
  0
VERTEX
  8
0
  5
8668
 10
0.0614754
 20
-0.150096
 30
0.000000
  70
    32
  0
VERTEX
  8
0
  5
8669
 10
0.0620745
 20
-0.149906
 30
0.000000
  70
    32
  0
VERTEX
  8
0
  5
866A
 10
0.0626643
 20
-0.149715
 30
0.000000
  70
    32
  0
VERTEX
  8
0
  5
866B
 10
0.0632447
 20
-0.149522
 30
0.000000
  70
    32
  0
VERTEX
  8
0
  5
866C
 10
0.0638155
 20
-0.149327
 30
0.000000
  70
    32
  0
VERTEX
  8
0
  5
866D
 10
0.0643768
 20
-0.149130
 30
0.000000
  70
    32
  0
VERTEX
  8
0
  5
866E
 10
0.0649283
 20
-0.148932
 30
0.000000
  70
    32
  0
VERTEX
  8
0
  5
866F
 10
0.0654700
 20
-0.148732
 30
0.000000
  70
    32
  0
VERTEX
  8
0
  5
8670
 10
0.0660019
 20
-0.148530
 30
0.000000
  70
    32
  0
VERTEX
  8
0
  5
8671
 10
0.0665239
 20
-0.148327
 30
0.000000
  70
    32
  0
VERTEX
  8
0
  5
8672
 10
0.0670358
 20
-0.148122
 30
0.000000
  70
    32
  0
VERTEX
  8
0
  5
8673
 10
0.0675377
 20
-0.147915
 30
0.000000
  70
    32
  0
VERTEX
  8
0
  5
8674
 10
0.0680294
 20
-0.147707
 30
0.000000
  70
    32
  0
VERTEX
  8
0
  5
8675
 10
0.0685108
 20
-0.147498
 30
0.000000
  70
    32
  0
VERTEX
  8
0
  5
8676
 10
0.0689819
 20
-0.147287
 30
0.000000
  70
    32
  0
VERTEX
  8
0
  5
8677
 10
0.0694426
 20
-0.147075
 30
0.000000
  70
    32
  0
VERTEX
  8
0
  5
8678
 10
0.0698929
 20
-0.146861
 30
0.000000
  70
    32
  0
VERTEX
  8
0
  5
8679
 10
0.0703326
 20
-0.146646
 30
0.000000
  70
    32
  0
VERTEX
  8
0
  5
867A
 10
0.0707618
 20
-0.146429
 30
0.000000
  70
    32
  0
VERTEX
  8
0
  5
867B
 10
0.0711803
 20
-0.146212
 30
0.000000
  70
    32
  0
VERTEX
  8
0
  5
867C
 10
0.0715880
 20
-0.145993
 30
0.000000
  70
    32
  0
VERTEX
  8
0
  5
867D
 10
0.0719850
 20
-0.145772
 30
0.000000
  70
    32
  0
VERTEX
  8
0
  5
867E
 10
0.0723712
 20
-0.145551
 30
0.000000
  70
    32
  0
VERTEX
  8
0
  5
867F
 10
0.0727464
 20
-0.145328
 30
0.000000
  70
    32
  0
VERTEX
  8
0
  5
8680
 10
0.0731107
 20
-0.145105
 30
0.000000
  70
    32
  0
VERTEX
  8
0
  5
8681
 10
0.0734640
 20
-0.144880
 30
0.000000
  70
    32
  0
VERTEX
  8
0
  5
8682
 10
0.0738062
 20
-0.144654
 30
0.000000
  70
    32
  0
VERTEX
  8
0
  5
8683
 10
0.0741373
 20
-0.144427
 30
0.000000
  70
    32
  0
VERTEX
  8
0
  5
8684
 10
0.0744573
 20
-0.144199
 30
0.000000
  70
    32
  0
VERTEX
  8
0
  5
8685
 10
0.0747660
 20
-0.143970
 30
0.000000
  70
    32
  0
VERTEX
  8
0
  5
8686
 10
0.0750635
 20
-0.143740
 30
0.000000
  70
    32
  0
VERTEX
  8
0
  5
8687
 10
0.0753496
 20
-0.143510
 30
0.000000
  70
    32
  0
VERTEX
  8
0
  5
8688
 10
0.0756245
 20
-0.143278
 30
0.000000
  70
    32
  0
VERTEX
  8
0
  5
8689
 10
0.0758879
 20
-0.143046
 30
0.000000
  70
    32
  0
VERTEX
  8
0
  5
868A
 10
0.0761399
 20
-0.142812
 30
0.000000
  70
    32
  0
VERTEX
  8
0
  5
868B
 10
0.0763804
 20
-0.142578
 30
0.000000
  70
    32
  0
VERTEX
  8
0
  5
868C
 10
0.0766094
 20
-0.142344
 30
0.000000
  70
    32
  0
VERTEX
  8
0
  5
868D
 10
0.0768269
 20
-0.142108
 30
0.000000
  70
    32
  0
VERTEX
  8
0
  5
868E
 10
0.0770329
 20
-0.141872
 30
0.000000
  70
    32
  0
VERTEX
  8
0
  5
868F
 10
0.0772272
 20
-0.141636
 30
0.000000
  70
    32
  0
VERTEX
  8
0
  5
8690
 10
0.0774099
 20
-0.141398
 30
0.000000
  70
    32
  0
VERTEX
  8
0
  5
8691
 10
0.0775809
 20
-0.141161
 30
0.000000
  70
    32
  0
VERTEX
  8
0
  5
8692
 10
0.0777403
 20
-0.140922
 30
0.000000
  70
    32
  0
VERTEX
  8
0
  5
8693
 10
0.0778879
 20
-0.140684
 30
0.000000
  70
    32
  0
VERTEX
  8
0
  5
8694
 10
0.0780238
 20
-0.140445
 30
0.000000
  70
    32
  0
VERTEX
  8
0
  5
8695
 10
0.0781480
 20
-0.140205
 30
0.000000
  70
    32
  0
VERTEX
  8
0
  5
8696
 10
0.0782604
 20
-0.139965
 30
0.000000
  70
    32
  0
VERTEX
  8
0
  5
8697
 10
0.0783610
 20
-0.139725
 30
0.000000
  70
    32
  0
VERTEX
  8
0
  5
8698
 10
0.0784498
 20
-0.139484
 30
0.000000
  70
    32
  0
VERTEX
  8
0
  5
8699
 10
0.0785268
 20
-0.139243
 30
0.000000
  70
    32
  0
VERTEX
  8
0
  5
869A
 10
0.0785920
 20
-0.139002
 30
0.000000
  70
    32
  0
VERTEX
  8
0
  5
869B
 10
0.0786453
 20
-0.138761
 30
0.000000
  70
    32
  0
VERTEX
  8
0
  5
869C
 10
0.0786868
 20
-0.138520
 30
0.000000
  70
    32
  0
VERTEX
  8
0
  5
869D
 10
0.0787164
 20
-0.138278
 30
0.000000
  70
    32
  0
VERTEX
  8
0
  5
869E
 10
0.0787342
 20
-0.138037
 30
0.000000
  70
    32
  0
VERTEX
  8
0
  5
869F
 10
0.0787402
 20
-0.137795
 30
0.000000
  70
    32
  0
SEQEND
  8
0
  5
86A0
  0
LINE
  5
75F3
  8
0
 10
-0.0000000000000568
 20
-0.1574803159999903
 30
0.0
 11
0.0787401579999454
 21
-0.1574803160000046
 31
0.0
  0
LINE
  5
75F5
  8
0
 10
-0.0000000000000568
 20
0.1181102369999961
 30
0.0
 11
0.0984251974999424
 21
0.1181102369999961
 31
0.0
  0
LINE
  5
75F6
  8
0
 10
-0.0000000000000568
 20
0.0
 30
0.0
 11
0.0984251974999424
 21
0.0
 31
0.0
  0
LINE
  5
75F8
  8
0
 10
0.0787401579999454
 20
0.1377952765000002
 30
0.0
 11
0.0984251974999424
 21
0.1181102369999961
 31
0.0
  0
LINE
  5
75F9
  8
0
 10
0.0984251974999424
 20
0.0
 30
0.0
 11
0.0984251974999424
 21
0.1181102369999961
 31
0.0
  0
LINE
  5
75FA
  8
0
 10
0.0826771658999448
 20
0.0
 30
0.0
 11
0.0826771658999448
 21
0.1338582686000079
 31
0.0
  0
LINE
  5
7789
  8
0
 10
0.0885826777499404
 20
-0.1574803160000046
 30
0.0
 11
0.0885826777499404
 21
-0.4015748057999958
 31
0.0
  0
LINE
  5
77BC
  8
0
 10
-0.1082677172500581
 20
-0.5196850427999922
 30
0.0
 11
0.1082677172499444
 21
-0.5196850427999921
 31
0.0
  0
LINE
  5
77D8
  8
0
 10
0.0751183128479696
 20
-0.4865356383980243
 30
0.0
 11
0.1082677172499444
 21
-0.5196850427999921
 31
0.0
  0
ARC
  5
77ED
  8
0
 10
0.1159684187932015
 20
-0.4406729753062707
 30
0.0
 40
0.0063222054353379
 50
303.45995603952599
 51
42.619566423677867
  0
ARC
  5
77EE
  8
0
 10
0.0806860828153191
 20
-0.4809678684306819
 30
0.0
 40
0.0078740158
 50
128.6598082540888
 51
224.9999999999992
  0
LINE
  5
77F0
  8
0
 10
0.1191920557407542
 20
-0.4348394475181295
 30
0.0
 11
-0.0000000000000568
 21
-0.4348394475181295
 31
0.0
  0
LINE
  5
77F1
  8
0
 10
0.1197860325132254
 20
-0.4457124303414163
 30
0.0
 11
-0.0000000000000568
 21
-0.4457124303414163
 31
0.0
  0
LINE
  5
77F2
  8
0
 10
0.0757672241406979
 20
-0.4748192950874001
 30
0.0
 11
-0.0000000000000568
 21
-0.4748192950874001
 31
0.0
  0
LINE
  5
77F3
  8
0
 10
0.0751183128479696
 20
-0.4865356383980243
 30
0.0
 11
-0.0000000000000568
 21
-0.4865356383980243
 31
0.0
  0
POINT
  5
7A48
  8
0
  6
BYBLOCK
 10
0.0787401579999454
 20
0.1377952765000002
 30
0.0
  0
LINE
  5
7A71
  8
0
 10
0.0885826777499404
 20
-0.4015748057999958
 30
0.0
 11
0.1206207141356756
 21
-0.4363920373701406
 31
0.0
  0
LINE
  5
7A72
  8
0
 10
0.0757672241406979
 20
-0.4748192950874001
 30
0.0
 11
0.119454192356244
 21
-0.4459474102744708
 31
0.0
  0
LINE
  5
7BD8
  8
0
 10
0.1377952764999435
 20
-0.0393700789999941
 30
0.0
 11
0.1377952764999435
 21
-0.027559055300003
 31
0.0
  0
LINE
  5
7BDA
  8
0
 10
0.1377952764999435
 20
-0.0393700789999941
 30
0.0
 11
0.1377952764999435
 21
0.0
 31
0.0
  0
LINE
  5
7BDB
  8
0
 10
0.1377952764999435
 20
0.0
 30
0.0
 11
-0.0000000000000568
 21
0.0
 31
0.0
  0
LINE
  5
7BE9
  8
0
 10
-0.0000000000000568
 20
-0.0393700789999941
 30
0.0
 11
0.1574803159999405
 21
-0.0393700789999941
 31
0.0
  0
POINT
  5
7EBE
  8
0
  6
BYBLOCK
 10
0.0787401579999454
 20
0.1377952765000002
 30
0.0
  0
POINT
  5
7EBF
  8
0
  6
BYBLOCK
 10
0.0984251974999424
 20
0.0
 30
0.0
  0
POINT
  5
80FA
  8
0
  6
BYBLOCK
 10
0.1181102369999536
 20
-0.1574803160000046
 30
0.0
  0
POINT
  5
80FB
  8
0
  6
BYBLOCK
 10
0.1082677172499444
 20
-0.5196850427999921
 30
0.0
  0
LINE
  5
8111
  8
0
 10
-0.0751183128480832
 20
-0.4865356383980243
 30
0.0
 11
-0.1082677172500581
 21
-0.5196850427999922
 31
0.0
  0
POINT
  5
8113
  8
0
  6
BYBLOCK
 10
-0.1082677172500581
 20
-0.5196850427999921
 30
0.0
  0
LINE
  5
8116
  8
0
 10
-0.1377952765000003
 20
0.0000000000000141
 30
0.0
 11
0.0
 21
0.0
 31
0.0
  0
LINE
  5
8117
  8
0
 10
-0.0757672241408045
 20
-0.4748192950873859
 30
0.0
 11
-0.1194541923563506
 21
-0.4459474102744566
 31
0.0
  0
LINE
  5
8118
  8
0
 10
-0.0885826777500469
 20
-0.4015748057999958
 30
0.0
 11
-0.1206207141357822
 21
-0.4363920373701263
 31
0.0
  0
LINE
  5
8119
  8
0
 10
-0.119786032513332
 20
-0.4457124303414021
 30
0.0
 11
-0.0000000000000497
 21
-0.4457124303414163
 31
0.0
  0
LINE
  5
811A
  8
0
 10
-0.1191920557408537
 20
-0.4348394475181295
 30
0.0
 11
-0.0000000000000497
 21
-0.4348394475181295
 31
0.0
  0
LINE
  5
811B
  8
0
 10
-0.078740157999988
 20
0.1377952765000144
 30
0.0
 11
-0.098425197499985
 21
0.1181102370000103
 31
0.0
  0
LINE
  5
811C
  8
0
 10
0.0
 20
0.0
 30
0.0
 11
-0.0984251974999992
 21
0.0000000000000141
 31
0.0
  0
LINE
  5
811D
  8
0
 10
0.0000000000000142
 20
0.1181102369999961
 30
0.0
 11
-0.098425197499985
 21
0.1181102370000103
 31
0.0
  0
LINE
  5
811E
  8
0
 10
-0.0787401580000236
 20
-0.1574803159999903
 30
0.0
 11
-0.1181102370000246
 21
-0.1574803159999903
 31
0.0
  0
LINE
  5
811F
  8
0
 10
-0.0826771659000016
 20
0.0000000000000141
 30
0.0
 11
-0.0826771658999874
 21
0.1338582686000079
 31
0.0
  0
LINE
  5
8120
  8
0
 10
-0.0885826777500185
 20
-0.1574803159999903
 30
0.0
 11
-0.0885826777500469
 21
-0.4015748057999958
 31
0.0
  0
LINE
  5
8121
  8
0
 10
-0.0751183128480832
 20
-0.4865356383980243
 30
0.0
 11
-0.0000000000000568
 21
-0.4865356383980243
 31
0.0
  0
LINE
  5
8122
  8
0
 10
-0.0757672241408045
 20
-0.4748192950873859
 30
0.0
 11
-0.0000000000000497
 21
-0.4748192950874001
 31
0.0
  0
ARC
  5
8123
  8
0
 10
-0.0806860828154328
 20
-0.4809678684306676
 30
0.0
 40
0.0078740158
 50
314.9999999999946
 51
51.340191745904903
  0
LINE
  5
8124
  8
0
 10
-0.0000000000000213
 20
-0.1574803159999903
 30
0.0
 11
-0.0787401580000236
 21
-0.1574803159999903
 31
0.0
  0
POLYLINE
  5
8125
  8
0
 10
-0.0000000000000158
 20
-0.1574803160000027
 30
0.0
 66
     1
 70
     8
  0
VERTEX
  8
0
  5
86A1
 10
-1.58427e-014
 20
-0.157480
 30
0.000000
  70
    32
  0
VERTEX
  8
0
  5
86A2
 10
-0.000966263
 20
-0.157479
 30
0.000000
  70
    32
  0
VERTEX
  8
0
  5
86A3
 10
-0.00193238
 20
-0.157474
 30
0.000000
  70
    32
  0
VERTEX
  8
0
  5
86A4
 10
-0.00289821
 20
-0.157467
 30
0.000000
  70
    32
  0
VERTEX
  8
0
  5
86A5
 10
-0.00386360
 20
-0.157457
 30
0.000000
  70
    32
  0
VERTEX
  8
0
  5
86A6
 10
-0.00482840
 20
-0.157443
 30
0.000000
  70
    32
  0
VERTEX
  8
0
  5
86A7
 10
-0.00579249
 20
-0.157427
 30
0.000000
  70
    32
  0
VERTEX
  8
0
  5
86A8
 10
-0.00675569
 20
-0.157408
 30
0.000000
  70
    32
  0
VERTEX
  8
0
  5
86A9
 10
-0.00771789
 20
-0.157386
 30
0.000000
  70
    32
  0
VERTEX
  8
0
  5
86AA
 10
-0.00867891
 20
-0.157360
 30
0.000000
  70
    32
  0
VERTEX
  8
0
  5
86AB
 10
-0.00963864
 20
-0.157332
 30
0.000000
  70
    32
  0
VERTEX
  8
0
  5
86AC
 10
-0.0105969
 20
-0.157301
 30
0.000000
  70
    32
  0
VERTEX
  8
0
  5
86AD
 10
-0.0115536
 20
-0.157267
 30
0.000000
  70
    32
  0
VERTEX
  8
0
  5
86AE
 10
-0.0125085
 20
-0.157230
 30
0.000000
  70
    32
  0
VERTEX
  8
0
  5
86AF
 10
-0.0134616
 20
-0.157191
 30
0.000000
  70
    32
  0
VERTEX
  8
0
  5
86B0
 10
-0.0144126
 20
-0.157148
 30
0.000000
  70
    32
  0
VERTEX
  8
0
  5
86B1
 10
-0.0153614
 20
-0.157102
 30
0.000000
  70
    32
  0
VERTEX
  8
0
  5
86B2
 10
-0.0163080
 20
-0.157053
 30
0.000000
  70
    32
  0
VERTEX
  8
0
  5
86B3
 10
-0.0172521
 20
-0.157002
 30
0.000000
  70
    32
  0
VERTEX
  8
0
  5
86B4
 10
-0.0181936
 20
-0.156948
 30
0.000000
  70
    32
  0
VERTEX
  8
0
  5
86B5
 10
-0.0191323
 20
-0.156890
 30
0.000000
  70
    32
  0
VERTEX
  8
0
  5
86B6
 10
-0.0200682
 20
-0.156830
 30
0.000000
  70
    32
  0
VERTEX
  8
0
  5
86B7
 10
-0.0210010
 20
-0.156767
 30
0.000000
  70
    32
  0
VERTEX
  8
0
  5
86B8
 10
-0.0219307
 20
-0.156701
 30
0.000000
  70
    32
  0
VERTEX
  8
0
  5
86B9
 10
-0.0228571
 20
-0.156633
 30
0.000000
  70
    32
  0
VERTEX
  8
0
  5
86BA
 10
-0.0237800
 20
-0.156561
 30
0.000000
  70
    32
  0
VERTEX
  8
0
  5
86BB
 10
-0.0246993
 20
-0.156487
 30
0.000000
  70
    32
  0
VERTEX
  8
0
  5
86BC
 10
-0.0256150
 20
-0.156410
 30
0.000000
  70
    32
  0
VERTEX
  8
0
  5
86BD
 10
-0.0265268
 20
-0.156330
 30
0.000000
  70
    32
  0
VERTEX
  8
0
  5
86BE
 10
-0.0274345
 20
-0.156247
 30
0.000000
  70
    32
  0
VERTEX
  8
0
  5
86BF
 10
-0.0283382
 20
-0.156161
 30
0.000000
  70
    32
  0
VERTEX
  8
0
  5
86C0
 10
-0.0292376
 20
-0.156073
 30
0.000000
  70
    32
  0
VERTEX
  8
0
  5
86C1
 10
-0.0301326
 20
-0.155982
 30
0.000000
  70
    32
  0
VERTEX
  8
0
  5
86C2
 10
-0.0310230
 20
-0.155888
 30
0.000000
  70
    32
  0
VERTEX
  8
0
  5
86C3
 10
-0.0319088
 20
-0.155792
 30
0.000000
  70
    32
  0
VERTEX
  8
0
  5
86C4
 10
-0.0327897
 20
-0.155692
 30
0.000000
  70
    32
  0
VERTEX
  8
0
  5
86C5
 10
-0.0336658
 20
-0.155590
 30
0.000000
  70
    32
  0
VERTEX
  8
0
  5
86C6
 10
-0.0345367
 20
-0.155486
 30
0.000000
  70
    32
  0
VERTEX
  8
0
  5
86C7
 10
-0.0354025
 20
-0.155378
 30
0.000000
  70
    32
  0
VERTEX
  8
0
  5
86C8
 10
-0.0362629
 20
-0.155268
 30
0.000000
  70
    32
  0
VERTEX
  8
0
  5
86C9
 10
-0.0371179
 20
-0.155156
 30
0.000000
  70
    32
  0
VERTEX
  8
0
  5
86CA
 10
-0.0379672
 20
-0.155041
 30
0.000000
  70
    32
  0
VERTEX
  8
0
  5
86CB
 10
-0.0388109
 20
-0.154923
 30
0.000000
  70
    32
  0
VERTEX
  8
0
  5
86CC
 10
-0.0396487
 20
-0.154803
 30
0.000000
  70
    32
  0
VERTEX
  8
0
  5
86CD
 10
-0.0404805
 20
-0.154680
 30
0.000000
  70
    32
  0
VERTEX
  8
0
  5
86CE
 10
-0.0413063
 20
-0.154554
 30
0.000000
  70
    32
  0
VERTEX
  8
0
  5
86CF
 10
-0.0421258
 20
-0.154426
 30
0.000000
  70
    32
  0
VERTEX
  8
0
  5
86D0
 10
-0.0429390
 20
-0.154296
 30
0.000000
  70
    32
  0
VERTEX
  8
0
  5
86D1
 10
-0.0437457
 20
-0.154163
 30
0.000000
  70
    32
  0
VERTEX
  8
0
  5
86D2
 10
-0.0445458
 20
-0.154027
 30
0.000000
  70
    32
  0
VERTEX
  8
0
  5
86D3
 10
-0.0453392
 20
-0.153889
 30
0.000000
  70
    32
  0
VERTEX
  8
0
  5
86D4
 10
-0.0461258
 20
-0.153749
 30
0.000000
  70
    32
  0
VERTEX
  8
0
  5
86D5
 10
-0.0469055
 20
-0.153606
 30
0.000000
  70
    32
  0
VERTEX
  8
0
  5
86D6
 10
-0.0476780
 20
-0.153461
 30
0.000000
  70
    32
  0
VERTEX
  8
0
  5
86D7
 10
-0.0484434
 20
-0.153314
 30
0.000000
  70
    32
  0
VERTEX
  8
0
  5
86D8
 10
-0.0492015
 20
-0.153164
 30
0.000000
  70
    32
  0
VERTEX
  8
0
  5
86D9
 10
-0.0499522
 20
-0.153012
 30
0.000000
  70
    32
  0
VERTEX
  8
0
  5
86DA
 10
-0.0506954
 20
-0.152858
 30
0.000000
  70
    32
  0
VERTEX
  8
0
  5
86DB
 10
-0.0514309
 20
-0.152701
 30
0.000000
  70
    32
  0
VERTEX
  8
0
  5
86DC
 10
-0.0521587
 20
-0.152542
 30
0.000000
  70
    32
  0
VERTEX
  8
0
  5
86DD
 10
-0.0528787
 20
-0.152381
 30
0.000000
  70
    32
  0
VERTEX
  8
0
  5
86DE
 10
-0.0535906
 20
-0.152218
 30
0.000000
  70
    32
  0
VERTEX
  8
0
  5
86DF
 10
-0.0542945
 20
-0.152052
 30
0.000000
  70
    32
  0
VERTEX
  8
0
  5
86E0
 10
-0.0549903
 20
-0.151884
 30
0.000000
  70
    32
  0
VERTEX
  8
0
  5
86E1
 10
-0.0556777
 20
-0.151715
 30
0.000000
  70
    32
  0
VERTEX
  8
0
  5
86E2
 10
-0.0563568
 20
-0.151543
 30
0.000000
  70
    32
  0
VERTEX
  8
0
  5
86E3
 10
-0.0570273
 20
-0.151369
 30
0.000000
  70
    32
  0
VERTEX
  8
0
  5
86E4
 10
-0.0576893
 20
-0.151193
 30
0.000000
  70
    32
  0
VERTEX
  8
0
  5
86E5
 10
-0.0583426
 20
-0.151015
 30
0.000000
  70
    32
  0
VERTEX
  8
0
  5
86E6
 10
-0.0589871
 20
-0.150835
 30
0.000000
  70
    32
  0
VERTEX
  8
0
  5
86E7
 10
-0.0596227
 20
-0.150653
 30
0.000000
  70
    32
  0
VERTEX
  8
0
  5
86E8
 10
-0.0602494
 20
-0.150469
 30
0.000000
  70
    32
  0
VERTEX
  8
0
  5
86E9
 10
-0.0608670
 20
-0.150283
 30
0.000000
  70
    32
  0
VERTEX
  8
0
  5
86EA
 10
-0.0614754
 20
-0.150096
 30
0.000000
  70
    32
  0
VERTEX
  8
0
  5
86EB
 10
-0.0620745
 20
-0.149906
 30
0.000000
  70
    32
  0
VERTEX
  8
0
  5
86EC
 10
-0.0626643
 20
-0.149715
 30
0.000000
  70
    32
  0
VERTEX
  8
0
  5
86ED
 10
-0.0632447
 20
-0.149522
 30
0.000000
  70
    32
  0
VERTEX
  8
0
  5
86EE
 10
-0.0638155
 20
-0.149327
 30
0.000000
  70
    32
  0
VERTEX
  8
0
  5
86EF
 10
-0.0643768
 20
-0.149130
 30
0.000000
  70
    32
  0
VERTEX
  8
0
  5
86F0
 10
-0.0649283
 20
-0.148932
 30
0.000000
  70
    32
  0
VERTEX
  8
0
  5
86F1
 10
-0.0654700
 20
-0.148732
 30
0.000000
  70
    32
  0
VERTEX
  8
0
  5
86F2
 10
-0.0660019
 20
-0.148530
 30
0.000000
  70
    32
  0
VERTEX
  8
0
  5
86F3
 10
-0.0665239
 20
-0.148327
 30
0.000000
  70
    32
  0
VERTEX
  8
0
  5
86F4
 10
-0.0670358
 20
-0.148122
 30
0.000000
  70
    32
  0
VERTEX
  8
0
  5
86F5
 10
-0.0675377
 20
-0.147915
 30
0.000000
  70
    32
  0
VERTEX
  8
0
  5
86F6
 10
-0.0680294
 20
-0.147707
 30
0.000000
  70
    32
  0
VERTEX
  8
0
  5
86F7
 10
-0.0685108
 20
-0.147498
 30
0.000000
  70
    32
  0
VERTEX
  8
0
  5
86F8
 10
-0.0689819
 20
-0.147287
 30
0.000000
  70
    32
  0
VERTEX
  8
0
  5
86F9
 10
-0.0694426
 20
-0.147075
 30
0.000000
  70
    32
  0
VERTEX
  8
0
  5
86FA
 10
-0.0698929
 20
-0.146861
 30
0.000000
  70
    32
  0
VERTEX
  8
0
  5
86FB
 10
-0.0703326
 20
-0.146646
 30
0.000000
  70
    32
  0
VERTEX
  8
0
  5
86FC
 10
-0.0707618
 20
-0.146429
 30
0.000000
  70
    32
  0
VERTEX
  8
0
  5
86FD
 10
-0.0711803
 20
-0.146212
 30
0.000000
  70
    32
  0
VERTEX
  8
0
  5
86FE
 10
-0.0715880
 20
-0.145993
 30
0.000000
  70
    32
  0
VERTEX
  8
0
  5
86FF
 10
-0.0719850
 20
-0.145772
 30
0.000000
  70
    32
  0
VERTEX
  8
0
  5
8700
 10
-0.0723712
 20
-0.145551
 30
0.000000
  70
    32
  0
VERTEX
  8
0
  5
8701
 10
-0.0727464
 20
-0.145328
 30
0.000000
  70
    32
  0
VERTEX
  8
0
  5
8702
 10
-0.0731107
 20
-0.145105
 30
0.000000
  70
    32
  0
VERTEX
  8
0
  5
8703
 10
-0.0734640
 20
-0.144880
 30
0.000000
  70
    32
  0
VERTEX
  8
0
  5
8704
 10
-0.0738062
 20
-0.144654
 30
0.000000
  70
    32
  0
VERTEX
  8
0
  5
8705
 10
-0.0741373
 20
-0.144427
 30
0.000000
  70
    32
  0
VERTEX
  8
0
  5
8706
 10
-0.0744573
 20
-0.144199
 30
0.000000
  70
    32
  0
VERTEX
  8
0
  5
8707
 10
-0.0747660
 20
-0.143970
 30
0.000000
  70
    32
  0
VERTEX
  8
0
  5
8708
 10
-0.0750635
 20
-0.143740
 30
0.000000
  70
    32
  0
VERTEX
  8
0
  5
8709
 10
-0.0753496
 20
-0.143510
 30
0.000000
  70
    32
  0
VERTEX
  8
0
  5
870A
 10
-0.0756245
 20
-0.143278
 30
0.000000
  70
    32
  0
VERTEX
  8
0
  5
870B
 10
-0.0758879
 20
-0.143046
 30
0.000000
  70
    32
  0
VERTEX
  8
0
  5
870C
 10
-0.0761399
 20
-0.142812
 30
0.000000
  70
    32
  0
VERTEX
  8
0
  5
870D
 10
-0.0763804
 20
-0.142578
 30
0.000000
  70
    32
  0
VERTEX
  8
0
  5
870E
 10
-0.0766094
 20
-0.142344
 30
0.000000
  70
    32
  0
VERTEX
  8
0
  5
870F
 10
-0.0768269
 20
-0.142108
 30
0.000000
  70
    32
  0
VERTEX
  8
0
  5
8710
 10
-0.0770329
 20
-0.141872
 30
0.000000
  70
    32
  0
VERTEX
  8
0
  5
8711
 10
-0.0772272
 20
-0.141636
 30
0.000000
  70
    32
  0
VERTEX
  8
0
  5
8712
 10
-0.0774099
 20
-0.141398
 30
0.000000
  70
    32
  0
VERTEX
  8
0
  5
8713
 10
-0.0775809
 20
-0.141161
 30
0.000000
  70
    32
  0
VERTEX
  8
0
  5
8714
 10
-0.0777403
 20
-0.140922
 30
0.000000
  70
    32
  0
VERTEX
  8
0
  5
8715
 10
-0.0778879
 20
-0.140684
 30
0.000000
  70
    32
  0
VERTEX
  8
0
  5
8716
 10
-0.0780238
 20
-0.140445
 30
0.000000
  70
    32
  0
VERTEX
  8
0
  5
8717
 10
-0.0781480
 20
-0.140205
 30
0.000000
  70
    32
  0
VERTEX
  8
0
  5
8718
 10
-0.0782604
 20
-0.139965
 30
0.000000
  70
    32
  0
VERTEX
  8
0
  5
8719
 10
-0.0783610
 20
-0.139725
 30
0.000000
  70
    32
  0
VERTEX
  8
0
  5
871A
 10
-0.0784498
 20
-0.139484
 30
0.000000
  70
    32
  0
VERTEX
  8
0
  5
871B
 10
-0.0785268
 20
-0.139243
 30
0.000000
  70
    32
  0
VERTEX
  8
0
  5
871C
 10
-0.0785920
 20
-0.139002
 30
0.000000
  70
    32
  0
VERTEX
  8
0
  5
871D
 10
-0.0786453
 20
-0.138761
 30
0.000000
  70
    32
  0
VERTEX
  8
0
  5
871E
 10
-0.0786868
 20
-0.138520
 30
0.000000
  70
    32
  0
VERTEX
  8
0
  5
871F
 10
-0.0787164
 20
-0.138278
 30
0.000000
  70
    32
  0
VERTEX
  8
0
  5
8720
 10
-0.0787342
 20
-0.138037
 30
0.000000
  70
    32
  0
VERTEX
  8
0
  5
8721
 10
-0.0787402
 20
-0.137795
 30
0.000000
  70
    32
  0
SEQEND
  8
0
  5
8722
  0
LINE
  5
8126
  8
0
 10
-0.0787401580000164
 20
-0.1377952764999862
 30
0.0
 11
-0.0787401580000093
 21
-0.0393700789999941
 31
0.0
  0
LINE
  5
8127
  8
0
 10
0.0000000000000142
 20
0.1377952765000002
 30
0.0
 11
-0.078740157999988
 21
0.1377952765000144
 31
0.0
  0
POINT
  5
8128
  8
0
  6
BYBLOCK
 10
-0.078740157999988
 20
0.1377952765000144
 30
0.0
  0
POINT
  5
8129
  8
0
  6
BYBLOCK
 10
-0.078740157999988
 20
0.1377952765000144
 30
0.0
  0
ARC
  5
812A
  8
0
 10
-0.115968418793301
 20
-0.4406729753062565
 30
0.0
 40
0.0063222054353379
 50
137.38043357631591
 51
236.54004396046781
  0
LINE
  5
812B
  8
0
 10
-0.1377952765000074
 20
-0.0393700789999799
 30
0.0
 11
-0.1377952765000003
 21
0.0000000000000141
 31
0.0
  0
LINE
  5
812C
  8
0
 10
-0.1377952765000074
 20
-0.0393700789999799
 30
0.0
 11
-0.1377952765000074
 21
-0.0275590552999888
 31
0.0
  0
POINT
  5
812D
  8
0
  6
BYBLOCK
 10
-0.1181102370000246
 20
-0.1574803159999903
 30
0.0
  0
POINT
  5
812E
  8
0
  6
BYBLOCK
 10
-0.0984251974999992
 20
0.0000000000000141
 30
0.0
  0
LINE
  5
8130
  8
0
 10
-0.0984251974999992
 20
0.0000000000000141
 30
0.0
 11
-0.098425197499985
 21
0.1181102370000103
 31
0.0
  0
LINE
  5
8131
  8
0
 10
-0.0000000000000071
 20
-0.0393700789999941
 30
0.0
 11
-0.1574803160000044
 21
-0.0393700789999799
 31
0.0
  0
POLYLINE
  5
8132
  8
0
 10
-0.0787401580000186
 20
-0.1377952764999905
 30
0.0
 66
     1
 70
     8
  0
VERTEX
  8
0
  5
8723
 10
-0.0787402
 20
-0.137795
 30
0.000000
  70
    32
  0
VERTEX
  8
0
  5
8724
 10
-0.0787520
 20
-0.138278
 30
0.000000
  70
    32
  0
VERTEX
  8
0
  5
8725
 10
-0.0787876
 20
-0.138761
 30
0.000000
  70
    32
  0
VERTEX
  8
0
  5
8726
 10
-0.0788468
 20
-0.139243
 30
0.000000
  70
    32
  0
VERTEX
  8
0
  5
8727
 10
-0.0789297
 20
-0.139725
 30
0.000000
  70
    32
  0
VERTEX
  8
0
  5
8728
 10
-0.0790362
 20
-0.140205
 30
0.000000
  70
    32
  0
VERTEX
  8
0
  5
8729
 10
-0.0791663
 20
-0.140684
 30
0.000000
  70
    32
  0
VERTEX
  8
0
  5
872A
 10
-0.0793198
 20
-0.141161
 30
0.000000
  70
    32
  0
VERTEX
  8
0
  5
872B
 10
-0.0794966
 20
-0.141636
 30
0.000000
  70
    32
  0
VERTEX
  8
0
  5
872C
 10
-0.0796968
 20
-0.142108
 30
0.000000
  70
    32
  0
VERTEX
  8
0
  5
872D
 10
-0.0799200
 20
-0.142578
 30
0.000000
  70
    32
  0
VERTEX
  8
0
  5
872E
 10
-0.0801663
 20
-0.143046
 30
0.000000
  70
    32
  0
VERTEX
  8
0
  5
872F
 10
-0.0804354
 20
-0.143510
 30
0.000000
  70
    32
  0
VERTEX
  8
0
  5
8730
 10
-0.0807272
 20
-0.143970
 30
0.000000
  70
    32
  0
VERTEX
  8
0
  5
8731
 10
-0.0810416
 20
-0.144427
 30
0.000000
  70
    32
  0
VERTEX
  8
0
  5
8732
 10
-0.0813782
 20
-0.144880
 30
0.000000
  70
    32
  0
VERTEX
  8
0
  5
8733
 10
-0.0817370
 20
-0.145328
 30
0.000000
  70
    32
  0
VERTEX
  8
0
  5
8734
 10
-0.0821177
 20
-0.145772
 30
0.000000
  70
    32
  0
VERTEX
  8
0
  5
8735
 10
-0.0825201
 20
-0.146212
 30
0.000000
  70
    32
  0
VERTEX
  8
0
  5
8736
 10
-0.0829439
 20
-0.146646
 30
0.000000
  70
    32
  0
VERTEX
  8
0
  5
8737
 10
-0.0833889
 20
-0.147075
 30
0.000000
  70
    32
  0
VERTEX
  8
0
  5
8738
 10
-0.0838548
 20
-0.147498
 30
0.000000
  70
    32
  0
VERTEX
  8
0
  5
8739
 10
-0.0843414
 20
-0.147915
 30
0.000000
  70
    32
  0
VERTEX
  8
0
  5
873A
 10
-0.0848483
 20
-0.148327
 30
0.000000
  70
    32
  0
VERTEX
  8
0
  5
873B
 10
-0.0853752
 20
-0.148732
 30
0.000000
  70
    32
  0
VERTEX
  8
0
  5
873C
 10
-0.0859219
 20
-0.149130
 30
0.000000
  70
    32
  0
VERTEX
  8
0
  5
873D
 10
-0.0864879
 20
-0.149522
 30
0.000000
  70
    32
  0
VERTEX
  8
0
  5
873E
 10
-0.0870730
 20
-0.149906
 30
0.000000
  70
    32
  0
VERTEX
  8
0
  5
873F
 10
-0.0876768
 20
-0.150283
 30
0.000000
  70
    32
  0
VERTEX
  8
0
  5
8740
 10
-0.0882989
 20
-0.150653
 30
0.000000
  70
    32
  0
VERTEX
  8
0
  5
8741
 10
-0.0889389
 20
-0.151015
 30
0.000000
  70
    32
  0
VERTEX
  8
0
  5
8742
 10
-0.0895966
 20
-0.151369
 30
0.000000
  70
    32
  0
VERTEX
  8
0
  5
8743
 10
-0.0902714
 20
-0.151715
 30
0.000000
  70
    32
  0
VERTEX
  8
0
  5
8744
 10
-0.0909630
 20
-0.152052
 30
0.000000
  70
    32
  0
VERTEX
  8
0
  5
8745
 10
-0.0916709
 20
-0.152381
 30
0.000000
  70
    32
  0
VERTEX
  8
0
  5
8746
 10
-0.0923948
 20
-0.152701
 30
0.000000
  70
    32
  0
VERTEX
  8
0
  5
8747
 10
-0.0931341
 20
-0.153012
 30
0.000000
  70
    32
  0
VERTEX
  8
0
  5
8748
 10
-0.0938885
 20
-0.153314
 30
0.000000
  70
    32
  0
VERTEX
  8
0
  5
8749
 10
-0.0946575
 20
-0.153606
 30
0.000000
  70
    32
  0
VERTEX
  8
0
  5
874A
 10
-0.0954406
 20
-0.153889
 30
0.000000
  70
    32
  0
VERTEX
  8
0
  5
874B
 10
-0.0962374
 20
-0.154163
 30
0.000000
  70
    32
  0
VERTEX
  8
0
  5
874C
 10
-0.0970473
 20
-0.154426
 30
0.000000
  70
    32
  0
VERTEX
  8
0
  5
874D
 10
-0.0978700
 20
-0.154680
 30
0.000000
  70
    32
  0
VERTEX
  8
0
  5
874E
 10
-0.0987048
 20
-0.154923
 30
0.000000
  70
    32
  0
VERTEX
  8
0
  5
874F
 10
-0.0995513
 20
-0.155156
 30
0.000000
  70
    32
  0
VERTEX
  8
0
  5
8750
 10
-0.100409
 20
-0.155378
 30
0.000000
  70
    32
  0
VERTEX
  8
0
  5
8751
 10
-0.101277
 20
-0.155590
 30
0.000000
  70
    32
  0
VERTEX
  8
0
  5
8752
 10
-0.102156
 20
-0.155792
 30
0.000000
  70
    32
  0
VERTEX
  8
0
  5
8753
 10
-0.103044
 20
-0.155982
 30
0.000000
  70
    32
  0
VERTEX
  8
0
  5
8754
 10
-0.103941
 20
-0.156161
 30
0.000000
  70
    32
  0
VERTEX
  8
0
  5
8755
 10
-0.104847
 20
-0.156330
 30
0.000000
  70
    32
  0
VERTEX
  8
0
  5
8756
 10
-0.105761
 20
-0.156487
 30
0.000000
  70
    32
  0
VERTEX
  8
0
  5
8757
 10
-0.106682
 20
-0.156633
 30
0.000000
  70
    32
  0
VERTEX
  8
0
  5
8758
 10
-0.107610
 20
-0.156767
 30
0.000000
  70
    32
  0
VERTEX
  8
0
  5
8759
 10
-0.108544
 20
-0.156890
 30
0.000000
  70
    32
  0
VERTEX
  8
0
  5
875A
 10
-0.109484
 20
-0.157002
 30
0.000000
  70
    32
  0
VERTEX
  8
0
  5
875B
 10
-0.110430
 20
-0.157102
 30
0.000000
  70
    32
  0
VERTEX
  8
0
  5
875C
 10
-0.111379
 20
-0.157191
 30
0.000000
  70
    32
  0
VERTEX
  8
0
  5
875D
 10
-0.112333
 20
-0.157267
 30
0.000000
  70
    32
  0
VERTEX
  8
0
  5
875E
 10
-0.113291
 20
-0.157332
 30
0.000000
  70
    32
  0
VERTEX
  8
0
  5
875F
 10
-0.114251
 20
-0.157386
 30
0.000000
  70
    32
  0
VERTEX
  8
0
  5
8760
 10
-0.115214
 20
-0.157427
 30
0.000000
  70
    32
  0
VERTEX
  8
0
  5
8761
 10
-0.116178
 20
-0.157457
 30
0.000000
  70
    32
  0
VERTEX
  8
0
  5
8762
 10
-0.117144
 20
-0.157474
 30
0.000000
  70
    32
  0
VERTEX
  8
0
  5
8763
 10
-0.118110
 20
-0.157480
 30
0.000000
  70
    32
  0
VERTEX
  8
0
  5
8764
 10
-0.119076
 20
-0.157474
 30
0.000000
  70
    32
  0
VERTEX
  8
0
  5
8765
 10
-0.120042
 20
-0.157457
 30
0.000000
  70
    32
  0
VERTEX
  8
0
  5
8766
 10
-0.121006
 20
-0.157427
 30
0.000000
  70
    32
  0
VERTEX
  8
0
  5
8767
 10
-0.121969
 20
-0.157386
 30
0.000000
  70
    32
  0
VERTEX
  8
0
  5
8768
 10
-0.122930
 20
-0.157332
 30
0.000000
  70
    32
  0
VERTEX
  8
0
  5
8769
 10
-0.123887
 20
-0.157267
 30
0.000000
  70
    32
  0
VERTEX
  8
0
  5
876A
 10
-0.124841
 20
-0.157191
 30
0.000000
  70
    32
  0
VERTEX
  8
0
  5
876B
 10
-0.125791
 20
-0.157102
 30
0.000000
  70
    32
  0
VERTEX
  8
0
  5
876C
 10
-0.126736
 20
-0.157002
 30
0.000000
  70
    32
  0
VERTEX
  8
0
  5
876D
 10
-0.127676
 20
-0.156890
 30
0.000000
  70
    32
  0
VERTEX
  8
0
  5
876E
 10
-0.128611
 20
-0.156767
 30
0.000000
  70
    32
  0
VERTEX
  8
0
  5
876F
 10
-0.129539
 20
-0.156633
 30
0.000000
  70
    32
  0
VERTEX
  8
0
  5
8770
 10
-0.130460
 20
-0.156487
 30
0.000000
  70
    32
  0
VERTEX
  8
0
  5
8771
 10
-0.131374
 20
-0.156330
 30
0.000000
  70
    32
  0
VERTEX
  8
0
  5
8772
 10
-0.132279
 20
-0.156161
 30
0.000000
  70
    32
  0
VERTEX
  8
0
  5
8773
 10
-0.133177
 20
-0.155982
 30
0.000000
  70
    32
  0
VERTEX
  8
0
  5
8774
 10
-0.134065
 20
-0.155792
 30
0.000000
  70
    32
  0
VERTEX
  8
0
  5
8775
 10
-0.134943
 20
-0.155590
 30
0.000000
  70
    32
  0
VERTEX
  8
0
  5
8776
 10
-0.135811
 20
-0.155378
 30
0.000000
  70
    32
  0
VERTEX
  8
0
  5
8777
 10
-0.136669
 20
-0.155156
 30
0.000000
  70
    32
  0
VERTEX
  8
0
  5
8778
 10
-0.137516
 20
-0.154923
 30
0.000000
  70
    32
  0
VERTEX
  8
0
  5
8779
 10
-0.138351
 20
-0.154680
 30
0.000000
  70
    32
  0
VERTEX
  8
0
  5
877A
 10
-0.139173
 20
-0.154426
 30
0.000000
  70
    32
  0
VERTEX
  8
0
  5
877B
 10
-0.139983
 20
-0.154163
 30
0.000000
  70
    32
  0
VERTEX
  8
0
  5
877C
 10
-0.140780
 20
-0.153889
 30
0.000000
  70
    32
  0
VERTEX
  8
0
  5
877D
 10
-0.141563
 20
-0.153606
 30
0.000000
  70
    32
  0
VERTEX
  8
0
  5
877E
 10
-0.142332
 20
-0.153314
 30
0.000000
  70
    32
  0
VERTEX
  8
0
  5
877F
 10
-0.143086
 20
-0.153012
 30
0.000000
  70
    32
  0
VERTEX
  8
0
  5
8780
 10
-0.143826
 20
-0.152701
 30
0.000000
  70
    32
  0
VERTEX
  8
0
  5
8781
 10
-0.144550
 20
-0.152381
 30
0.000000
  70
    32
  0
VERTEX
  8
0
  5
8782
 10
-0.145258
 20
-0.152052
 30
0.000000
  70
    32
  0
VERTEX
  8
0
  5
8783
 10
-0.145949
 20
-0.151715
 30
0.000000
  70
    32
  0
VERTEX
  8
0
  5
8784
 10
-0.146624
 20
-0.151369
 30
0.000000
  70
    32
  0
VERTEX
  8
0
  5
8785
 10
-0.147282
 20
-0.151015
 30
0.000000
  70
    32
  0
VERTEX
  8
0
  5
8786
 10
-0.147922
 20
-0.150653
 30
0.000000
  70
    32
  0
VERTEX
  8
0
  5
8787
 10
-0.148544
 20
-0.150283
 30
0.000000
  70
    32
  0
VERTEX
  8
0
  5
8788
 10
-0.149147
 20
-0.149906
 30
0.000000
  70
    32
  0
VERTEX
  8
0
  5
8789
 10
-0.149733
 20
-0.149522
 30
0.000000
  70
    32
  0
VERTEX
  8
0
  5
878A
 10
-0.150299
 20
-0.149130
 30
0.000000
  70
    32
  0
VERTEX
  8
0
  5
878B
 10
-0.150845
 20
-0.148732
 30
0.000000
  70
    32
  0
VERTEX
  8
0
  5
878C
 10
-0.151372
 20
-0.148327
 30
0.000000
  70
    32
  0
VERTEX
  8
0
  5
878D
 10
-0.151879
 20
-0.147915
 30
0.000000
  70
    32
  0
VERTEX
  8
0
  5
878E
 10
-0.152366
 20
-0.147498
 30
0.000000
  70
    32
  0
VERTEX
  8
0
  5
878F
 10
-0.152832
 20
-0.147075
 30
0.000000
  70
    32
  0
VERTEX
  8
0
  5
8790
 10
-0.153277
 20
-0.146646
 30
0.000000
  70
    32
  0
VERTEX
  8
0
  5
8791
 10
-0.153700
 20
-0.146212
 30
0.000000
  70
    32
  0
VERTEX
  8
0
  5
8792
 10
-0.154103
 20
-0.145772
 30
0.000000
  70
    32
  0
VERTEX
  8
0
  5
8793
 10
-0.154483
 20
-0.145328
 30
0.000000
  70
    32
  0
VERTEX
  8
0
  5
8794
 10
-0.154842
 20
-0.144880
 30
0.000000
  70
    32
  0
VERTEX
  8
0
  5
8795
 10
-0.155179
 20
-0.144427
 30
0.000000
  70
    32
  0
VERTEX
  8
0
  5
8796
 10
-0.155493
 20
-0.143970
 30
0.000000
  70
    32
  0
VERTEX
  8
0
  5
8797
 10
-0.155785
 20
-0.143510
 30
0.000000
  70
    32
  0
VERTEX
  8
0
  5
8798
 10
-0.156054
 20
-0.143046
 30
0.000000
  70
    32
  0
VERTEX
  8
0
  5
8799
 10
-0.156300
 20
-0.142578
 30
0.000000
  70
    32
  0
VERTEX
  8
0
  5
879A
 10
-0.156524
 20
-0.142108
 30
0.000000
  70
    32
  0
VERTEX
  8
0
  5
879B
 10
-0.156724
 20
-0.141636
 30
0.000000
  70
    32
  0
VERTEX
  8
0
  5
879C
 10
-0.156901
 20
-0.141161
 30
0.000000
  70
    32
  0
VERTEX
  8
0
  5
879D
 10
-0.157054
 20
-0.140684
 30
0.000000
  70
    32
  0
VERTEX
  8
0
  5
879E
 10
-0.157184
 20
-0.140205
 30
0.000000
  70
    32
  0
VERTEX
  8
0
  5
879F
 10
-0.157291
 20
-0.139725
 30
0.000000
  70
    32
  0
VERTEX
  8
0
  5
87A0
 10
-0.157374
 20
-0.139243
 30
0.000000
  70
    32
  0
VERTEX
  8
0
  5
87A1
 10
-0.157433
 20
-0.138761
 30
0.000000
  70
    32
  0
VERTEX
  8
0
  5
87A2
 10
-0.157468
 20
-0.138278
 30
0.000000
  70
    32
  0
VERTEX
  8
0
  5
87A3
 10
-0.157480
 20
-0.137795
 30
0.000000
  70
    32
  0
SEQEND
  8
0
  5
87A4
  0
LINE
  5
8134
  8
0
 10
-0.1574803160000187
 20
-0.137795276499972
 30
0.0
 11
-0.1574803160000044
 21
-0.0393700789999799
 31
0.0
  0
LINE
  5
815A
  8
0
 10
-0.0885826777500469
 20
-0.4015748057999958
 30
0.0
 11
0.0885826777499404
 21
-0.4015748057999958
 31
0.0
  0
ENDSEC
  0
EOF
