  0
SECTION
  2
HEADER
  9
$ACADVER
  1
AC1014
  9
$ACADMAINTVER
 70
     9
  9
$DWGCODEPAGE
  3
ANSI_1252
  9
$INSBASE
 10
0.0
 20
0.0
 30
0.0
  9
$EXTMIN
 10
2.648250123473136
 20
-7.049208619748296
 30
-0.00000001
  9
$EXTMAX
 10
21.64933248714727
 20
13.5764055176695
 30
0.00000001
  9
$LIMMIN
 10
0.0
 20
0.0
  9
$LIMMAX
 10
12.0
 20
9.0
  9
$ORTHOMODE
 70
     1
  9
$REGENMODE
 70
     1
  9
$FILLMODE
 70
     1
  9
$QTEXTMODE
 70
     0
  9
$MIRRTEXT
 70
     1
  9
$DRAGMODE
 70
     2
  9
$LTSCALE
 40
0.5
  9
$OSMODE
 70
     5
  9
$ATTMODE
 70
     1
  9
$TEXTSIZE
 40
0.156
  9
$TRACEWID
 40
0.05
  9
$TEXTSTYLE
  7
ROMANS
  9
$CLAYER
  8
AM_HID
  9
$CELTYPE
  6
BYLAYER
  9
$CECOLOR
 62
   256
  9
$CELTSCALE
 40
1.0
  9
$DELOBJ
 70
     1
  9
$DISPSILH
 70
     0
  9
$DIMSCALE
 40
1.000000003
  9
$DIMASZ
 40
0.18
  9
$DIMEXO
 40
0.09
  9
$DIMDLI
 40
0.38
  9
$DIMRND
 40
0.0
  9
$DIMDLE
 40
0.0
  9
$DIMEXE
 40
0.18
  9
$DIMTP
 40
0.0
  9
$DIMTM
 40
0.0
  9
$DIMTXT
 40
0.156
  9
$DIMCEN
 40
0.09
  9
$DIMTSZ
 40
0.0
  9
$DIMTOL
 70
     0
  9
$DIMLIM
 70
     0
  9
$DIMTIH
 70
     1
  9
$DIMTOH
 70
     1
  9
$DIMSE1
 70
     0
  9
$DIMSE2
 70
     0
  9
$DIMTAD
 70
     0
  9
$DIMZIN
 70
     4
  9
$DIMBLK
  1

  9
$DIMASO
 70
     1
  9
$DIMSHO
 70
     1
  9
$DIMPOST
  1

  9
$DIMAPOST
  1

  9
$DIMALT
 70
     0
  9
$DIMALTD
 70
     2
  9
$DIMALTF
 40
25.4
  9
$DIMLFAC
 40
1.0
  9
$DIMTOFL
 70
     0
  9
$DIMTVP
 40
0.0
  9
$DIMTIX
 70
     0
  9
$DIMSOXD
 70
     0
  9
$DIMSAH
 70
     0
  9
$DIMBLK1
  1

  9
$DIMBLK2
  1

  9
$DIMSTYLE
  2
STANDARD
  9
$DIMCLRD
 70
   256
  9
$DIMCLRE
 70
   256
  9
$DIMCLRT
 70
   256
  9
$DIMTFAC
 40
1.0
  9
$DIMGAP
 40
0.09
  9
$DIMJUST
 70
     0
  9
$DIMSD1
 70
     0
  9
$DIMSD2
 70
     0
  9
$DIMTOLJ
 70
     1
  9
$DIMTZIN
 70
     0
  9
$DIMALTZ
 70
     0
  9
$DIMALTTZ
 70
     0
  9
$DIMFIT
 70
     3
  9
$DIMUPT
 70
     0
  9
$DIMUNIT
 70
     2
  9
$DIMDEC
 70
     3
  9
$DIMTDEC
 70
     3
  9
$DIMALTU
 70
     2
  9
$DIMALTTD
 70
     2
  9
$DIMTXSTY
  7
ROMANS
  9
$DIMAUNIT
 70
     0
  9
$LUNITS
 70
     2
  9
$LUPREC
 70
     4
  9
$SKETCHINC
 40
0.1
  9
$FILLETRAD
 40
0.0
  9
$AUNITS
 70
     0
  9
$AUPREC
 70
     2
  9
$MENU
  1
acad
  9
$ELEVATION
 40
0.0
  9
$PELEVATION
 40
0.0
  9
$THICKNESS
 40
0.0
  9
$LIMCHECK
 70
     0
  9
$BLIPMODE
 70
     0
  9
$CHAMFERA
 40
0.0
  9
$CHAMFERB
 40
0.0
  9
$CHAMFERC
 40
0.0
  9
$CHAMFERD
 40
0.0
  9
$SKPOLY
 70
     0
  9
$TDCREATE
 40
2452310.778234155
  9
$TDUPDATE
 40
2452853.397605613
  9
$TDINDWG
 40
0.0320440509
  9
$TDUSRTIMER
 40
0.0320439352
  9
$USRTIMER
 70
     1
  9
$ANGBASE
 50
0.0
  9
$ANGDIR
 70
     0
  9
$PDMODE
 70
     0
  9
$PDSIZE
 40
0.0
  9
$PLINEWID
 40
0.0
  9
$COORDS
 70
     0
  9
$SPLFRAME
 70
     0
  9
$SPLINETYPE
 70
     6
  9
$SPLINESEGS
 70
     8
  9
$ATTDIA
 70
     0
  9
$ATTREQ
 70
     1
  9
$HANDLING
 70
 12289
  9
$HANDSEED
  5
751
  9
$SURFTAB1
 70
    15
  9
$SURFTAB2
 70
    15
  9
$SURFTYPE
 70
     6
  9
$SURFU
 70
     6
  9
$SURFV
 70
     6
  9
$UCSNAME
  2

  9
$UCSORG
 10
0.0
 20
0.0
 30
0.0
  9
$UCSXDIR
 10
1.0
 20
0.0
 30
0.0
  9
$UCSYDIR
 10
0.0
 20
1.0
 30
0.0
  9
$PUCSNAME
  2

  9
$PUCSORG
 10
0.0
 20
0.0
 30
0.0
  9
$PUCSXDIR
 10
1.0
 20
0.0
 30
0.0
  9
$PUCSYDIR
 10
0.0
 20
1.0
 30
0.0
  9
$USERI1
 70
     0
  9
$USERI2
 70
     0
  9
$USERI3
 70
     0
  9
$USERI4
 70
     0
  9
$USERI5
 70
     0
  9
$USERR1
 40
0.0
  9
$USERR2
 40
0.0
  9
$USERR3
 40
0.0
  9
$USERR4
 40
0.0
  9
$USERR5
 40
0.0
  9
$WORLDVIEW
 70
     1
  9
$SHADEDGE
 70
     3
  9
$SHADEDIF
 70
    70
  9
$TILEMODE
 70
     1
  9
$MAXACTVP
 70
    15
  9
$PINSBASE
 10
0.0
 20
0.0
 30
0.0
  9
$PLIMCHECK
 70
     0
  9
$PEXTMIN
 10
2.148250123473136
 20
-7.424208619748297
 30
0.0
  9
$PEXTMAX
 10
22.14933248714726
 20
13.9514055176695
 30
0.0
  9
$PLIMMIN
 10
-0.2500002402958907
 20
-0.2499999962453767
  9
$PLIMMAX
 10
10.74999951940821
 20
8.249999763458731
  9
$UNITMODE
 70
     0
  9
$VISRETAIN
 70
     0
  9
$PLINEGEN
 70
     0
  9
$PSLTSCALE
 70
     1
  9
$TREEDEPTH
 70
  3020
  9
$PICKSTYLE
 70
     1
  9
$CMLSTYLE
  2
STANDARD
  9
$CMLJUST
 70
     0
  9
$CMLSCALE
 40
1.0
  9
$PROXYGRAPHICS
 70
     1
  9
$MEASUREMENT
 70
     0
  0
ENDSEC
  0
SECTION
  2
CLASSES
  0
CLASS
  1
ACMESCOPE
  2
AcMeScope
  3
AcMeServices
 90
        0
280
     0
281
     0
  0
CLASS
  1
ACMECOMMANDHISTORY
  2
AcMeCommandHistory
  3
AcMeServices
 90
        0
280
     0
281
     0
  0
CLASS
  1
AcRfInsAdjusterMgr
  2
AcRfInsAdjusterMgr
  3
AcMeServices
 90
        0
280
     0
281
     0
  0
CLASS
  1
ACGREFMASTER
  2
AcGrefMaster
  3
AcAttribServices
 90
        0
280
     0
281
     0
  0
CLASS
  1
AmiMaster
  2
AmiMaster
  3
AmiServices
 90
        0
280
     0
281
     0
  0
CLASS
  1
ACASGREFMASTER
  2
AcAsGrefMaster
  3
AutoSurfResolverServices
 90
        0
280
     0
281
     0
  0
CLASS
  1
ADAPPL
  2
AcAdAppl
  3
DesignerServices
 90
        0
280
     0
281
     0
  0
CLASS
  1
DEPMGR
  2
AcAdDepMgr
  3
DesignerServices
 90
        0
280
     0
281
     0
  0
CLASS
  1
PARAMMGR
  2
AcAdParamMgr
  3
DesignerServices
 90
        0
280
     0
281
     0
  0
CLASS
  1
PARAMSCOPE
  2
AcAdParamScope
  3
DesignerServices
 90
        0
280
     0
281
     0
  0
CLASS
  1
"IM_SYSVAR_MAN"
  2
AcImSysVarManager
  3
AcMeServices
 90
        0
280
     0
281
     0
  0
CLASS
  1
SYSTEM_VAR_INT
  2
AcImIntSysVar
  3
AcMeServices
 90
        0
280
     0
281
     0
  0
CLASS
  1
SYSTEM_VAR_REAL
  2
AcImRealSysVar
  3
AcMeServices
 90
        0
280
     0
281
     0
  0
CLASS
  1
SYSTEM_VAR_STR
  2
AcImStrSysVar
  3
AcMeServices
 90
        0
280
     0
281
     0
  0
CLASS
  1
NAMEDAPPL
  2
AcAdNamedAppl
  3
DesignerServices
 90
        0
280
     0
281
     0
  0
CLASS
  1
ADPART
  2
AcAdPart
  3
DesignerServices
 90
        0
280
     0
281
     1
  0
CLASS
  1
ADBASE
  2
AcAdBase
  3
DesignerServices
 90
        0
280
     0
281
     0
  0
CLASS
  1
BODYID
  2
AcAdBodyId
  3
DesignerServices
 90
        0
280
     0
281
     0
  0
CLASS
  1
WORKPLANEDISPLAYMGR
  2
AcAdDisplayMgr
  3
DesignerServices
 90
        0
280
     0
281
     0
  0
CLASS
  1
ADHNTMPLT
  2
AdHoleNoteTemplateMgr
  3
DesignerServices
 90
        0
280
     0
281
     0
  0
CLASS
  1
AM_HNTEMPLATE_MGR_NAME
  2
AdHoleNoteTemplateMgrName
  3
DesignerServices
 90
        0
280
     0
281
     0
  0
CLASS
  1
AcAdGrefModule
  2
AcAdGrefModule
  3
AdGrefServices
 90
        0
280
     0
281
     0
  0
CLASS
  1
AM_DRAWING_MGR
  2
AcDmDwgMgr
  3
AcMechDwgViewMgmt
 90
        0
280
     0
281
     0
  0
CLASS
  1
AM_DWG_DOCUMENT
  2
AcDmDwgDocument
  3
AcMechDwgViewMgmt
 90
        0
280
     0
281
     0
  0
CLASS
  1
AM_DWG_SHEET
  2
AcDmSheet
  3
AcMechDwgViewMgmt
 90
        0
280
     0
281
     0
  0
CLASS
  1
AM_VIEWDIMPARMAP
  2
AcDmViewDimParMap
  3
AcMechDwgViewMgmt
 90
        0
280
     0
281
     0
  0
CLASS
  1
AM_DWGMGR_NAME
  2
AcDmDwgMgrName
  3
AcMechDwgViewMgmt
 90
        0
280
     0
281
     0
  0
CLASS
  1
ACAMPROJECT
  2
AcAmProject
  3
DesignerAssemblies
 90
        0
280
     0
281
     0
  0
CLASS
  1
ACAMGRCOMPSET
  2
AcAmGrCompSet
  3
DesignerAssemblies
 90
        0
280
     1
281
     0
  0
CLASS
  1
ACAMGRCOMPDEFSET
  2
AcAmGrCompDefSet
  3
DesignerAssemblies
 90
        0
280
     0
281
     0
  0
CLASS
  1
ACAMGRCOMPDEF
  2
AcAmGrCompDef
  3
DesignerAssemblies
 90
        0
280
     0
281
     0
  0
CLASS
  1
ACAMCOMPDEF
  2
AcAmCompDef
  3
DesignerAssemblies
 90
        0
280
     0
281
     0
  0
CLASS
  1
ACAMCOMPDEFMGR
  2
AcAmCompDefMgr
  3
DesignerAssemblies
 90
        0
280
     0
281
     0
  0
CLASS
  1
AMCONTEXTMGR
  2
AcAmContextMgr
  3
DesignerAssemblies
 90
        0
280
     0
281
     0
  0
CLASS
  1
ACAMCONTEXTMODELER
  2
AcAmContextModeler
  3
DesignerAssemblies
 90
        0
280
     0
281
     0
  0
CLASS
  1
ACAMDRAWINGMAN
  2
AcAmDrawingMan
  3
DesignerAssemblies
 90
        0
280
     0
281
     0
  0
CLASS
  1
ACDMVIEWGEOM
  2
AcDmViewGeometry
  3
AcMechDwgViewMgmt
 90
        0
280
     0
281
     1
  0
CLASS
  1
ASSYSVARS
  2
AcAsSysVars
  3
AutoSurfServices
 90
        0
280
     0
281
     0
  0
CLASS
  1
ASSTATICVARS
  2
AcAsStaticVars
  3
"AutoSurf"
 90
        0
280
     1
281
     0
  0
CLASS
  1
ASAPP
  2
AcAsAppObject
  3
AutoSurfServices
 90
        0
280
     0
281
     0
  0
CLASS
  1
AGDICTIONARY
  2
AgDictionary
  3
"AccelView"
 90
        1
280
     0
281
     0
  0
CLASS
  1
ACDBDICTIONARYWDFLT
  2
AcDbDictionaryWithDefault
  3
AutoCAD 2000
 90
        0
280
     0
281
     0
  0
CLASS
  1
ACDBPLACEHOLDER
  2
AcDbPlaceHolder
  3
AutoCAD 2000
 90
        0
280
     0
281
     0
  0
CLASS
  1
LAYOUT
  2
AcDbLayout
  3
AutoCAD 2000
 90
        0
280
     0
281
     0
  0
CLASS
  1
LONG_TRANSACTION
  2
AcDbLongTransaction
  3
AutoCAD 2000
 90
        0
280
     0
281
     0
  0
CLASS
  1
LWPOLYLINE
  2
AcDbPolyline
  3
AutoCAD 2000
 90
        0
280
     0
281
     1
  0
CLASS
  1
HATCH
  2
AcDbHatch
  3
AutoCAD 2000
 90
        0
280
     0
281
     1
  0
CLASS
  1
XRECORD
  2
AcDbXrecord
  3
AutoCAD 2000
 90
        0
280
     0
281
     0
  0
CLASS
  1
ACMESTATEMGR
  2
AcMeStateMgr
  3
AcMeServices
 90
        0
280
     0
281
     0
  0
CLASS
  1
ACME_DOCUMENT
  2
AcMeDbDoc
  3
AcMeServices
 90
        0
280
     0
281
     0
  0
CLASS
  1
DICTIONARYVAR
  2
AcDbDictionaryVar
  3
AutoCAD 2000
 90
        0
280
     0
281
     0
  0
CLASS
  1
ACMEDRAWINGMAN
  2
AcMeDrawingMan
  3
AcMeServices
 90
        0
280
     0
281
     0
  0
CLASS
  1
ACDBENTITYCACHE
  2
AcMeEntityCache
  3
AcMeServices
 90
        0
280
     0
281
     0
  0
CLASS
  1
GSMANAGER
  2
AcMeGSManager
  3
AcMeServices
 90
        0
280
     0
281
     0
  0
CLASS
  1
AmdtInternalReactor
  2
AmdtInternalReactor
  3
AcMeServices
 90
        0
280
     0
281
     0
  0
CLASS
  1
ACME_DATABASE
  2
AcMeDbDatabase
  3
AcMeServices
 90
        0
280
     0
281
     0
  0
CLASS
  1
ACGREFMASTER
  2
AcGrefacadMaster
  3
AcGrefServices
 90
        0
280
     0
281
     0
  0
CLASS
  1
AMDTMENUSTATEMGR
  2
AmdtMenuStateMgr
  3
McadcomServices
 90
        0
280
     0
281
     0
  0
CLASS
  1
AMDTMCOMMENUSTATE
  2
AmdtMcomMenuState
  3
McadcomServices
 90
        0
280
     0
281
     0
  0
CLASS
  1
IM_STATIC_MAN
  2
AcImStaticVarManager
  3
AcMeServices
 90
        0
280
     0
281
     0
  0
CLASS
  1
ACIMDBLSTATICVAR
  2
AcImDblStaticVar
  3
AcMeServices
 90
        0
280
     0
281
     0
  0
CLASS
  1
ACIMSTRSTATICVAR
  2
AcImStrStaticVar
  3
AcMeServices
 90
        0
280
     0
281
     0
  0
CLASS
  1
ACIMINTSTATICVAR
  2
AcImIntStaticVar
  3
AcMeServices
 90
        0
280
     0
281
     0
  0
CLASS
  1
MAPIAMMOUDLE
  2
MApiAmModule
  3
MApiAmServices
 90
        0
280
     0
281
     0
  0
CLASS
  1
AMDTDMMENUSTATE
  2
AmdtDmMenuState
  3
AcMechDwgViewMgmt
 90
        0
280
     0
281
     0
  0
CLASS
  1
AMDTADMENUSTATE
  2
AmdtAdMenuState
  3
DesignerServices
 90
        0
280
     0
281
     0
  0
CLASS
  1
AMDTAMMENUSTATE
  2
AmdtAmMenuState
  3
DesignerAssemblies
 90
        0
280
     0
281
     0
  0
CLASS
  1
MAPIADMODULE
  2
MApiAdModule
  3
MApiAdServices
 90
        0
280
     0
281
     0
  0
CLASS
  1
ACCMCONTEXT
  2
AcCmContext
  3
DesignerAssemblies
 90
        0
280
     0
281
     0
  0
CLASS
  1
ACMDATADICTIONARY
  2
AcmDataDictionary
  3
"AcmSymBB|Product Description: AutoCAD Mechanical 2000|Company: Autodesk"
 90
        0
280
     0
281
     0
  0
CLASS
  1
ACMDATAENTRYBLOCK
  2
AcmDataEntryBlock
  3
"AcmSymBB|Product Description: AutoCAD Mechanical 2000|Company: Autodesk"
 90
        0
280
     0
281
     0
  0
CLASS
  1
AMDTBROWSERDBTAB
  2
AmdtBrowserDbTab
  3
McadcomServices
 90
        0
280
     0
281
     0
  0
CLASS
  1
CBROWSERAPPOBJECT
  2
CBrowserAppObject
  3
McadcomServices
 90
        0
280
     0
281
     0
  0
CLASS
  1
DM_PLACEHOLDER
  2
AcDmSelsetPlaceholder
  3
AcMechDwgViewMgmt
 90
        0
280
     0
281
     0
  0
CLASS
  1
CATALOGSTATE
  2
AcAmCatalogState
  3
DesignerAssemblies
 90
        0
280
     0
281
     0
  0
CLASS
  1
AMGOBJPROPCFG
  2
AmgObjPropCfg
  3
"AmgLay|Product Description: AutoCAD Mechanical 2000|Company: Autodesk"
 90
        1
280
     0
281
     0
  0
CLASS
  1
AM_VIEW_SELECT_FILTER
  2
AcDmSelectViewEntFilter
  3
AcMechDwgViewMgmt
 90
        0
280
     0
281
     0
  0
CLASS
  1
ACDBSOLPLANERES
  2
AcDbSolPlaneRes
  3
AcGrefServices
 90
        0
280
     0
281
     0
  0
CLASS
  1
AM_GREF_PLANE
  2
AcDmGrefPlnDef
  3
AcMechDwgViewMgmt
 90
        0
280
     0
281
     0
  0
CLASS
  1
ACDBSOLLINEDGRES
  2
AcDbSolLinEdgRes
  3
AcGrefServices
 90
        0
280
     0
281
     0
  0
CLASS
  1
AM_GREF_AXIS
  2
AcDmGrefAxisDef
  3
AcMechDwgViewMgmt
 90
        0
280
     0
281
     0
  0
CLASS
  1
AM_BASE_VIEW_ORIENT
  2
AcDmBaseViewOr
  3
AcMechDwgViewMgmt
 90
        0
280
     0
281
     0
  0
CLASS
  1
ACMELINEARARROW
  2
AcImLinearArrowDisplay
  3
AcMeServices
 90
        0
280
     0
281
     1
  0
CLASS
  1
AM_DWG_VIEWPORT
  2
AcDmViewport
  3
AcMechDwgViewMgmt
 90
        0
280
     0
281
     0
  0
CLASS
  1
AM_VIEW_DISPLAY
  2
AcDmDwgViewDisplay
  3
AcMechDwgViewMgmt
 90
        0
280
     0
281
     0
  0
CLASS
  1
AM_CLDFLTS
  2
AcDmClDflts
  3
AcMechDwgViewMgmt
 90
        0
280
     0
281
     0
  0
CLASS
  1
AM_BASE_VIEW
  2
AcDmBaseView
  3
AcMechDwgViewMgmt
 90
        0
280
     0
281
     0
  0
CLASS
  1
ACDMVWEDARC
  2
AcDmViewEdgeArc
  3
AcMechDwgViewMgmt
 90
        0
280
     0
281
     1
  0
CLASS
  1
ACDMVWEDCIRC
  2
AcDmViewEdgeCircle
  3
AcMechDwgViewMgmt
 90
        0
280
     0
281
     1
  0
CLASS
  1
ACDMVWEDLINE
  2
AcDmViewEdgeLine
  3
AcMechDwgViewMgmt
 90
        0
280
     0
281
     1
  0
CLASS
  1
LAYER_INDEX
  2
AcDbLayerIndex
  3
AutoCAD 2000
 90
        0
280
     0
281
     0
  0
CLASS
  1
IDBUFFER
  2
AcDbIdBuffer
  3
AutoCAD 2000
 90
        0
280
     0
281
     0
  0
CLASS
  1
AM_ORTHO_VIEW_ORIENT
  2
AcDmOrthoViewOr
  3
AcMechDwgViewMgmt
 90
        0
280
     0
281
     0
  0
CLASS
  1
AM_ORTHO_VIEW
  2
AcDmOrthoView
  3
AcMechDwgViewMgmt
 90
        0
280
     0
281
     0
  0
CLASS
  1
ACDMVWEDSPLINE
  2
AcDmViewEdgeSpline
  3
AcMechDwgViewMgmt
 90
        0
280
     0
281
     1
  0
CLASS
  1
ACRFATTGENMGR
  2
AcRfAttGeneralMgr
  3
AcAttribServices
 90
        0
280
     0
281
     0
  0
CLASS
  1
ACAD_PROXY_OBJECT_WRAPPER
  2
AcDbProxyObjectWrapper
  3
AutoCAD 2000
 90
        0
280
     0
281
     0
  0
CLASS
  1
ACAD_PROXY_ENTITY_WRAPPER
  2
AcDbProxyEntityWrapper
  3
AutoCAD 2000
 90
        0
280
     0
281
     1
  0
CLASS
  1
LONG_TRANSACTION
  2
AcDbLongTransaction
  3
AutoCAD 2000
 90
        0
280
     0
281
     0
  0
CLASS
  1
LWPOLYLINE
  2
AcDbPolyline
  3
AutoCAD 2000
 90
        0
280
     0
281
     1
  0
CLASS
  1
HATCH
  2
AcDbHatch
  3
AutoCAD 2000
 90
        0
280
     0
281
     1
  0
CLASS
  1
XRECORD
  2
AcDbXrecord
  3
AutoCAD 2000
 90
        0
280
     0
281
     0
  0
CLASS
  1
LONG_TRANSACTION
  2
AcDbLongTransaction
  3
AutoCAD 2000
 90
        0
280
     0
281
     0
  0
CLASS
  1
LWPOLYLINE
  2
AcDbPolyline
  3
AutoCAD 2000
 90
        0
280
     0
281
     1
  0
CLASS
  1
HATCH
  2
AcDbHatch
  3
AutoCAD 2000
 90
        0
280
     0
281
     1
  0
CLASS
  1
XRECORD
  2
AcDbXrecord
  3
AutoCAD 2000
 90
        0
280
     0
281
     0
  0
CLASS
  1
LONG_TRANSACTION
  2
AcDbLongTransaction
  3
AutoCAD 2000
 90
        0
280
     0
281
     0
  0
CLASS
  1
LWPOLYLINE
  2
AcDbPolyline
  3
AutoCAD 2000
 90
        0
280
     0
281
     1
  0
CLASS
  1
HATCH
  2
AcDbHatch
  3
AutoCAD 2000
 90
        0
280
     0
281
     1
  0
CLASS
  1
XRECORD
  2
AcDbXrecord
  3
AutoCAD 2000
 90
        0
280
     0
281
     0
  0
CLASS
  1
LONG_TRANSACTION
  2
AcDbLongTransaction
  3
AutoCAD 2000
 90
        0
280
     0
281
     0
  0
CLASS
  1
LWPOLYLINE
  2
AcDbPolyline
  3
AutoCAD 2000
 90
        0
280
     0
281
     1
  0
CLASS
  1
HATCH
  2
AcDbHatch
  3
AutoCAD 2000
 90
        0
280
     0
281
     1
  0
CLASS
  1
XRECORD
  2
AcDbXrecord
  3
AutoCAD 2000
 90
        0
280
     0
281
     0
  0
CLASS
  1
LONG_TRANSACTION
  2
AcDbLongTransaction
  3
AutoCAD 2000
 90
        0
280
     0
281
     0
  0
CLASS
  1
LWPOLYLINE
  2
AcDbPolyline
  3
AutoCAD 2000
 90
        0
280
     0
281
     1
  0
CLASS
  1
HATCH
  2
AcDbHatch
  3
AutoCAD 2000
 90
        0
280
     0
281
     1
  0
CLASS
  1
XRECORD
  2
AcDbXrecord
  3
AutoCAD 2000
 90
        0
280
     0
281
     0
  0
CLASS
  1
LONG_TRANSACTION
  2
AcDbLongTransaction
  3
AutoCAD 2000
 90
        0
280
     0
281
     0
  0
CLASS
  1
LWPOLYLINE
  2
AcDbPolyline
  3
AutoCAD 2000
 90
        0
280
     0
281
     1
  0
CLASS
  1
HATCH
  2
AcDbHatch
  3
AutoCAD 2000
 90
        0
280
     0
281
     1
  0
CLASS
  1
XRECORD
  2
AcDbXrecord
  3
AutoCAD 2000
 90
        0
280
     0
281
     0
  0
CLASS
  1
LONG_TRANSACTION
  2
AcDbLongTransaction
  3
AutoCAD 2000
 90
        0
280
     0
281
     0
  0
CLASS
  1
LWPOLYLINE
  2
AcDbPolyline
  3
AutoCAD 2000
 90
        0
280
     0
281
     1
  0
CLASS
  1
HATCH
  2
AcDbHatch
  3
AutoCAD 2000
 90
        0
280
     0
281
     1
  0
CLASS
  1
XRECORD
  2
AcDbXrecord
  3
AutoCAD 2000
 90
        0
280
     0
281
     0
  0
CLASS
  1
LONG_TRANSACTION
  2
AcDbLongTransaction
  3
AutoCAD 2000
 90
        0
280
     0
281
     0
  0
CLASS
  1
LWPOLYLINE
  2
AcDbPolyline
  3
AutoCAD 2000
 90
        0
280
     0
281
     1
  0
CLASS
  1
HATCH
  2
AcDbHatch
  3
AutoCAD 2000
 90
        0
280
     0
281
     1
  0
CLASS
  1
XRECORD
  2
AcDbXrecord
  3
AutoCAD 2000
 90
        0
280
     0
281
     0
  0
CLASS
  1
ACMEVIEW
  2
AcMeView
  3
AcMeServices
 90
        0
280
     0
281
     0
  0
CLASS
  1
ACDMVWEDELLIPSE
  2
AcDmViewEdgeEllipse
  3
AcMechDwgViewMgmt
 90
        0
280
     0
281
     1
  0
CLASS
  1
LONG_TRANSACTION
  2
AcDbLongTransaction
  3
AutoCAD 2000
 90
        0
280
     0
281
     0
  0
CLASS
  1
LWPOLYLINE
  2
AcDbPolyline
  3
AutoCAD 2000
 90
        0
280
     0
281
     1
  0
CLASS
  1
HATCH
  2
AcDbHatch
  3
AutoCAD 2000
 90
        0
280
     0
281
     1
  0
CLASS
  1
XRECORD
  2
AcDbXrecord
  3
AutoCAD 2000
 90
        0
280
     0
281
     0
  0
CLASS
  1
LONG_TRANSACTION
  2
AcDbLongTransaction
  3
AutoCAD 2000
 90
        0
280
     0
281
     0
  0
CLASS
  1
LWPOLYLINE
  2
AcDbPolyline
  3
AutoCAD 2000
 90
        0
280
     0
281
     1
  0
CLASS
  1
HATCH
  2
AcDbHatch
  3
AutoCAD 2000
 90
        0
280
     0
281
     1
  0
CLASS
  1
XRECORD
  2
AcDbXrecord
  3
AutoCAD 2000
 90
        0
280
     0
281
     0
  0
ENDSEC
  0
SECTION
  2
TABLES
  0
TABLE
  2
VPORT
  5
1D
330
0
100
AcDbSymbolTable
 70
     2
  0
VPORT
  5
72D
330
1D
100
AcDbSymbolTableRecord
100
AcDbViewportTableRecord
  2
*ACTIVE
 70
     0
 10
0.0
 20
0.0
 11
1.0
 21
1.0
 12
12.148633853552
 22
3.263978676486733
 13
0.0
 23
0.0
 14
1.0
 24
1.0
 15
0.0
 25
0.0
 16
0.0
 26
0.0
 36
1.0
 17
0.0
 27
0.0
 37
0.0
 40
20.81949620115735
 41
1.677018633540372
 42
50.0
 43
0.0
 44
0.0
 50
0.0
 51
0.0
 71
     0
 72
   100
 73
     1
 74
     1
 75
     0
 76
     0
 77
     0
 78
     0
  0
ENDTAB
  0
TABLE
  2
LTYPE
  5
18
330
0
100
AcDbSymbolTable
 70
     2
  0
LTYPE
  5
19
330
18
100
AcDbSymbolTableRecord
100
AcDbLinetypeTableRecord
  2
BYBLOCK
 70
     0
  3

 72
    65
 73
     0
 40
0.0
  0
LTYPE
  5
1A
330
18
100
AcDbSymbolTableRecord
100
AcDbLinetypeTableRecord
  2
BYLAYER
 70
     0
  3

 72
    65
 73
     0
 40
0.0
  0
LTYPE
  5
A
330
18
100
AcDbSymbolTableRecord
100
AcDbLinetypeTableRecord
  2
CONTINUOUS
 70
     0
  3
Solid line
 72
    65
 73
     0
 40
0.0
  0
LTYPE
  5
3B
330
18
100
AcDbSymbolTableRecord
100
AcDbLinetypeTableRecord
  2
HIDDEN
 70
     0
  3
Hidden __ __ __ __ __ __ __ __ __ __ __ __ __ _
 72
    65
 73
     2
 40
0.375
 49
0.25
 74
     0
 49
-0.125
 74
     0
  0
ENDTAB
  0
TABLE
  2
LAYER
  5
14
330
0
100
AcDbSymbolTable
 70
     3
  0
LAYER
  5
6
330
14
100
AcDbSymbolTableRecord
100
AcDbLayerTableRecord
  2
0
 70
     0
 62
     7
  6
CONTINUOUS
  0
LAYER
  5
2B
330
14
100
AcDbSymbolTableRecord
100
AcDbLayerTableRecord
  2
AM_VIS
 70
     2
 62
     7
  6
CONTINUOUS
  0
LAYER
  5
3A
330
14
100
AcDbSymbolTableRecord
100
AcDbLayerTableRecord
  2
AM_HID
 70
     2
 62
     7
  6
HIDDEN
  0
ENDTAB
  0
TABLE
  2
STYLE
  5
15
330
0
100
AcDbSymbolTable
 70
     2
  0
STYLE
  5
16
330
15
100
AcDbSymbolTableRecord
100
AcDbTextStyleTableRecord
  2
STANDARD
 70
     0
 40
0.0
 41
1.0
 50
0.0
 71
     0
 42
0.2067340150288407
  3
txt
  4

  0
STYLE
  5
27
330
15
100
AcDbSymbolTableRecord
100
AcDbTextStyleTableRecord
  2
ROMANS
 70
     0
 40
0.0
 41
1.0
 50
0.0
 71
     0
 42
0.156
  3
romans.shx
  4

  0
ENDTAB
  0
TABLE
  2
VIEW
  5
1B
330
0
100
AcDbSymbolTable
 70
     0
  0
ENDTAB
  0
TABLE
  2
UCS
  5
1C
330
0
100
AcDbSymbolTable
 70
     0
  0
ENDTAB
  0
TABLE
  2
APPID
  5
1F
330
0
100
AcDbSymbolTable
 70
     1
  0
APPID
  5
20
330
1F
100
AcDbSymbolTableRecord
100
AcDbRegAppTableRecord
  2
ACAD
 70
     0
  0
ENDTAB
  0
TABLE
  2
DIMSTYLE
  5
21
330
0
100
AcDbSymbolTable
 70
     1
  0
DIMSTYLE
105
29
330
21
100
AcDbSymbolTableRecord
100
AcDbDimStyleTableRecord
  2
STANDARD
 70
     0
  3

  4

  5

  6

  7

 40
1.0
 41
0.18
 42
0.0625
 43
0.38
 44
0.18
 45
0.0
 46
0.0
 47
0.0
 48
0.0
140
0.156
141
0.09
142
0.0
143
25.4
144
1.0
145
0.0
146
1.0
147
0.09
 71
     0
 72
     0
 73
     1
 74
     1
 75
     0
 76
     0
 77
     0
 78
     4
170
     0
171
     2
172
     0
173
     0
174
     0
175
     0
176
   256
177
   256
178
   256
270
     2
271
     3
272
     3
273
     2
274
     2
340
27
275
     0
280
     0
281
     0
282
     0
283
     1
284
     0
285
     0
286
     0
287
     3
288
     0
  0
ENDTAB
  0
TABLE
  2
BLOCK_RECORD
  5
1
330
0
100
AcDbSymbolTable
 70
     0
  0
BLOCK_RECORD
  5
2
102
{ACAD_XDICTIONARY
360
3
102
}
330
1
100
AcDbSymbolTableRecord
100
AcDbBlockTableRecord
  2
*MODEL_SPACE
  0
BLOCK_RECORD
  5
E
102
{ACAD_XDICTIONARY
360
F
102
}
330
1
100
AcDbSymbolTableRecord
100
AcDbBlockTableRecord
  2
*PAPER_SPACE
  0
ENDTAB
  0
ENDSEC
  0
SECTION
  2
BLOCKS
  0
BLOCK
  5
5
330
2
100
AcDbEntity
  8
0
100
AcDbBlockBegin
  2
*MODEL_SPACE
 70
     0
 10
0.0
 20
0.0
 30
0.0
  3
*MODEL_SPACE
  1

  0
ENDBLK
  5
B
330
2
100
AcDbEntity
  8
0
100
AcDbBlockEnd
  0
BLOCK
  5
11
330
E
100
AcDbEntity
 67
     1
  8
0
100
AcDbBlockBegin
  2
*PAPER_SPACE
 70
     0
 10
0.0
 20
0.0
 30
0.0
  3
*PAPER_SPACE
  1

  0
ENDBLK
  5
12
330
E
100
AcDbEntity
 67
     1
  8
0
100
AcDbBlockEnd
  0
ENDSEC
  0
SECTION
  2
ENTITIES
  0
LINE
  5
2A
330
2
100
AcDbEntity
  8
AM_VIS
100
AcDbLine
 10
7.601250123473138
 20
7.355016935821312
 30
0.0
 11
8.398250123473143
 21
7.355016935821312
 31
0.0
  0
LINE
  5
2C
330
2
100
AcDbEntity
  8
AM_VIS
100
AcDbLine
 10
8.398250123473143
 20
7.855016935821312
 30
0.0
 11
8.398250123473143
 21
7.355016935821312
 31
0.0
  0
LINE
  5
2D
330
2
100
AcDbEntity
  8
AM_VIS
100
AcDbLine
 10
8.398250123473143
 20
7.855016935821312
 30
0.0
 11
7.601250123473139
 21
7.855016935821312
 31
0.0
  0
LINE
  5
2E
330
2
100
AcDbEntity
  8
AM_VIS
100
AcDbLine
 10
7.601250123473138
 20
7.855016935821312
 30
0.0
 11
7.601250123473138
 21
7.355016935821312
 31
0.0
  0
LINE
  5
2F
330
2
100
AcDbEntity
  8
AM_VIS
100
AcDbLine
 10
2.898250123473143
 20
7.855016935821312
 30
0.0
 11
2.898250123473143
 21
7.355016935821312
 31
0.0
  0
LINE
  5
30
330
2
100
AcDbEntity
  8
AM_VIS
100
AcDbLine
 10
2.898250123473143
 20
7.355016935821312
 30
0.0
 11
6.94525012347314
 21
7.355016935821312
 31
0.0
  0
LINE
  5
31
330
2
100
AcDbEntity
  8
AM_VIS
100
AcDbLine
 10
6.945250123473139
 20
7.855016935821312
 30
0.0
 11
6.945250123473139
 21
7.355016935821312
 31
0.0
  0
LINE
  5
32
330
2
100
AcDbEntity
  8
AM_VIS
100
AcDbLine
 10
6.945250123473139
 20
7.855016935821312
 30
0.0
 11
2.898250123473142
 21
7.855016935821312
 31
0.0
  0
LINE
  5
33
330
2
100
AcDbEntity
  8
AM_VIS
100
AcDbLine
 10
6.945250123473139
 20
7.355016935821312
 30
0.0
 11
7.601250123473138
 21
7.355016935821312
 31
0.0
  0
LINE
  5
34
330
2
100
AcDbEntity
  8
AM_VIS
100
AcDbLine
 10
7.601250123473138
 20
7.855016935821312
 30
0.0
 11
6.945250123473139
 21
7.855016935821312
 31
0.0
  0
LINE
  5
35
330
2
100
AcDbEntity
  8
AM_VIS
100
AcDbLine
 10
2.648250123473137
 20
-1.084987458587448
 30
0.0
 11
2.648250123473137
 21
-1.834987458587448
 31
0.0
  0
LINE
  5
36
330
2
100
AcDbEntity
  8
AM_VIS
100
AcDbLine
 10
2.648250123473137
 20
-1.834987458587448
 30
0.0
 11
8.648250123473136
 21
-1.834987458587448
 31
0.0
  0
LINE
  5
37
330
2
100
AcDbEntity
  8
AM_VIS
100
AcDbLine
 10
8.648250123473136
 20
-1.084987458587448
 30
0.0
 11
8.648250123473136
 21
-1.834987458587448
 31
0.0
  0
LINE
  5
38
330
2
100
AcDbEntity
  8
AM_VIS
100
AcDbLine
 10
8.648250123473136
 20
-1.084987458587448
 30
0.0
 11
2.648250123473137
 21
-1.084987458587448
 31
0.0
  0
ARC
  5
3D
330
2
100
AcDbEntity
  8
AM_VIS
100
AcDbCircle
 10
3.960250123473137
 20
6.354603999750921
 30
0.0
 40
0.125
100
AcDbArc
 50
181.1459919984297
 51
358.8540080016526
  0
ARC
  5
41
330
2
100
AcDbEntity
  8
AM_VIS
100
AcDbCircle
 10
4.710250123473137
 20
6.354603999750921
 30
0.0
 40
0.125
100
AcDbArc
 50
181.145991998389
 51
358.8540080016119
  0
CIRCLE
  5
47
330
2
100
AcDbEntity
  8
AM_VIS
100
AcDbCircle
 10
5.648250123473138
 20
0.5416039997509188
 30
0.0
 40
0.315
  0
CIRCLE
  5
48
330
2
100
AcDbEntity
  8
AM_VIS
100
AcDbCircle
 10
5.64825012347314
 20
6.29460399975092
 30
0.0
 40
0.315
  0
LINE
  5
4A
330
2
100
AcDbEntity
  8
AM_VIS
100
AcDbLine
 10
7.648250123473134
 20
-0.3953960002490788
 30
0.0
 11
3.648250123473137
 21
-0.3953960002490779
 31
0.0
  0
LINE
  5
4C
330
2
100
AcDbEntity
  8
AM_VIS
100
AcDbLine
 10
3.148250123473137
 20
5.665012541412554
 30
0.0
 11
3.148250123473138
 21
7.354603999750922
 31
0.0
  0
LINE
  5
4D
330
2
100
AcDbEntity
  8
AM_VIS
100
AcDbLine
 10
3.148250123473138
 20
7.354603999750922
 30
0.0
 11
8.14825012347314
 21
7.354603999750922
 31
0.0
  0
LINE
  5
4E
330
2
100
AcDbEntity
  8
AM_VIS
100
AcDbLine
 10
8.14825012347314
 20
7.354603999750922
 30
0.0
 11
8.14825012347314
 21
5.665012541412552
 31
0.0
  0
LINE
  5
53
330
2
100
AcDbEntity
  8
AM_VIS
100
AcDbLine
 10
3.148250123473139
 20
5.165012541412554
 30
0.0
 11
3.148250123473139
 21
5.665012541412554
 31
0.0
  0
LINE
  5
54
330
2
100
AcDbEntity
  8
AM_VIS
100
AcDbLine
 10
8.14825012347314
 20
5.165012541412552
 30
0.0
 11
8.14825012347314
 21
5.665012541412552
 31
0.0
  0
LINE
  5
55
330
2
100
AcDbEntity
  8
AM_VIS
100
AcDbLine
 10
8.14825012347314
 20
5.665012541412552
 30
0.0
 11
3.148250123473138
 21
5.665012541412552
 31
0.0
  0
LINE
  5
56
330
2
100
AcDbEntity
  8
AM_VIS
100
AcDbLine
 10
8.14825012347314
 20
5.165012541412552
 30
0.0
 11
3.148250123473138
 21
5.165012541412552
 31
0.0
  0
LINE
  5
57
330
2
100
AcDbEntity
  8
AM_VIS
100
AcDbLine
 10
6.773250123473133
 20
4.936943760535156
 30
0.0
 11
6.523250123473128
 21
4.936943760535156
 31
0.0
  0
LINE
  5
58
330
2
100
AcDbEntity
  8
AM_VIS
100
AcDbLine
 10
6.523250123473132
 20
4.936943760535156
 30
0.0
 11
6.273250123473133
 21
4.936943760535156
 31
0.0
  0
LINE
  5
59
330
2
100
AcDbEntity
  8
AM_VIS
100
AcDbLine
 10
6.304750123473134
 20
6.756943760535156
 30
0.0
 11
6.741750123473133
 21
6.756943760535156
 31
0.0
  0
LINE
  5
5A
330
2
100
AcDbEntity
  8
AM_VIS
100
AcDbLine
 10
6.273250123473133
 20
6.496943760535151
 30
0.0
 11
6.773250123473133
 21
6.496943760535151
 31
0.0
  0
CIRCLE
  5
5C
330
2
100
AcDbEntity
  8
AM_VIS
100
AcDbCircle
 10
6.960750123473137
 20
0.6046039997509212
 30
0.0
 40
0.2025
  0
CIRCLE
  5
5D
330
2
100
AcDbEntity
  8
AM_VIS
100
AcDbCircle
 10
7.335750123473133
 20
0.6046039997509212
 30
0.0
 40
0.125
  0
CIRCLE
  5
5E
330
2
100
AcDbEntity
  8
AM_VIS
100
AcDbCircle
 10
6.585750123473137
 20
0.6046039997509212
 30
0.0
 40
0.125
  0
LINE
  5
5F
330
2
100
AcDbEntity
  8
AM_VIS
100
AcDbLine
 10
7.585750123473135
 20
0.9796039997509202
 30
0.0
 11
7.585750123473135
 21
-0.0203960002490789
 31
0.0
  0
LINE
  5
60
330
2
100
AcDbEntity
  8
AM_VIS
100
AcDbLine
 10
6.335750123473139
 20
0.9796039997509202
 30
0.0
 11
6.335750123473139
 21
-0.0203960002490789
 31
0.0
  0
LINE
  5
61
330
2
100
AcDbEntity
  8
AM_VIS
100
AcDbLine
 10
6.335750123473137
 20
-0.0203960002490789
 30
0.0
 11
7.585750123473133
 21
-0.0203960002490789
 31
0.0
  0
LINE
  5
62
330
2
100
AcDbEntity
  8
AM_VIS
100
AcDbLine
 10
6.335750123473139
 20
0.9796039997509202
 30
0.0
 11
7.585750123473135
 21
0.9796039997509202
 31
0.0
  0
LINE
  5
65
330
2
100
AcDbEntity
  8
AM_VIS
100
AcDbLine
 10
3.648250123473139
 20
5.165012541412554
 30
0.0
 11
3.148250123473139
 21
5.165012541412554
 31
0.0
  0
LINE
  5
67
330
2
100
AcDbEntity
  8
AM_VIS
100
AcDbLine
 10
3.648250123473139
 20
-1.084987458587447
 30
0.0
 11
3.648250123473139
 21
5.165012541412554
 31
0.0
  0
LINE
  5
68
330
2
100
AcDbEntity
  8
AM_VIS
100
AcDbLine
 10
3.148250123473139
 20
-1.084987458587447
 30
0.0
 11
3.148250123473139
 21
5.165012541412554
 31
0.0
  0
CIRCLE
  5
69
330
2
100
AcDbEntity
  8
AM_VIS
100
AcDbCircle
 10
5.648250123473138
 20
0.5416039997509188
 30
0.0
 40
0.1695
  0
CIRCLE
  5
6A
330
2
100
AcDbEntity
  8
AM_VIS
100
AcDbCircle
 10
5.648250123473138
 20
0.5416039997509188
 30
0.0
 40
0.1151535874439447
  0
CIRCLE
  5
6B
330
2
100
AcDbEntity
  8
AM_VIS
100
AcDbCircle
 10
5.648250123473138
 20
0.5416039997509188
 30
0.0
 40
0.1094999999999979
  0
LINE
  5
6E
330
2
100
AcDbEntity
  8
AM_VIS
100
AcDbLine
 10
5.648250123473022
 20
0.2892279566811737
 30
0.0
 11
5.429686058867661
 21
0.415415978216279
 31
0.0
  0
LINE
  5
6F
330
2
100
AcDbEntity
  8
AM_VIS
100
AcDbLine
 10
5.866814188078386
 20
0.4154159782162808
 30
0.0
 11
5.648250123473022
 21
0.2892279566811746
 31
0.0
  0
LINE
  5
70
330
2
100
AcDbEntity
  8
AM_VIS
100
AcDbLine
 10
5.866814188078386
 20
0.6677920212864659
 30
0.0
 11
5.866814188078386
 21
0.4154159782162808
 31
0.0
  0
LINE
  5
71
330
2
100
AcDbEntity
  8
AM_VIS
100
AcDbLine
 10
5.648250123473024
 20
0.7939800428215729
 30
0.0
 11
5.866814188078387
 21
0.6677920212864672
 31
0.0
  0
LINE
  5
72
330
2
100
AcDbEntity
  8
AM_VIS
100
AcDbLine
 10
5.429686058867662
 20
0.6677920212864659
 30
0.0
 11
5.648250123473025
 21
0.7939800428215716
 31
0.0
  0
LINE
  5
73
330
2
100
AcDbEntity
  8
AM_VIS
100
AcDbLine
 10
5.429686058867662
 20
0.4154159782162808
 30
0.0
 11
5.429686058867662
 21
0.6677920212864659
 31
0.0
  0
LINE
  5
75
330
2
100
AcDbEntity
  8
AM_VIS
100
AcDbLine
 10
4.194750123473138
 20
4.41390001946886
 30
0.0
 11
3.851750123473134
 21
4.41390001946886
 31
0.0
  0
SPLINE
  5
76
330
2
100
AcDbEntity
  8
AM_VIS
100
AcDbSpline
210
0.0
220
0.0
230
1.0
 70
     8
 71
     3
 72
    12
 73
     8
 74
     0
 42
0.0000000001
 43
0.0000000001
 40
0.4217407258248198
 40
0.4217407258248198
 40
0.4217407258248198
 40
0.4217407258248198
 40
0.428569718413665
 40
0.428569718413665
 40
0.4787530642830522
 40
0.4787530642830522
 40
0.480830512687666
 40
0.480830512687666
 40
0.480830512687666
 40
0.480830512687666
 10
3.813250123474893
 20
4.134154385283464
 30
0.0
 10
3.81325012347483
 20
4.135329267171156
 30
0.0
 10
3.813284819516293
 20
4.136319191058527
 30
0.0
 10
3.813832760621739
 20
4.14316487814324
 30
0.0
 10
3.816252430521863
 20
4.143816733825362
 30
0.0
 10
3.821247712212442
 20
4.143898492154674
 30
0.0
 10
3.821450123671663
 20
4.143900019468864
 30
0.0
 10
3.821656346987264
 20
4.143900019468864
 30
0.0
  0
ELLIPSE
  5
77
330
2
100
AcDbEntity
  8
AM_VIS
100
AcDbEllipse
 10
3.787696014456453
 20
4.113900019468866
 30
0.0
 11
0.0346409701895607
 21
0.0
 31
0.0
210
0.0
220
0.0
230
1.0
 40
0.8660265528313837
 41
0.0000000000000003
 42
0.7411619599954246
  0
ELLIPSE
  5
78
330
2
100
AcDbEntity
  8
AM_VIS
100
AcDbEllipse
 10
3.905474844289159
 20
4.113900019468866
 30
0.0
 11
0.0
 21
-0.03
 31
0.0
210
0.0
220
0.0
230
1.0
 40
0.5773518012562934
 41
1.570796326794896
 42
2.311844454236959
  0
SPLINE
  5
79
330
2
100
AcDbEntity
  8
AM_VIS
100
AcDbSpline
210
0.0
220
0.0
230
1.0
 70
     8
 71
     3
 72
    12
 73
     8
 74
     0
 42
0.0000000001
 43
0.0000000001
 40
0.0481058974647739
 40
0.0481058974647739
 40
0.0481058974647739
 40
0.0481058974647739
 40
0.0501833458693873
 40
0.0501833458693873
 40
0.1003666917387745
 40
0.1003666917387745
 40
0.1072005649096604
 40
0.1072005649096604
 40
0.1072005649096604
 40
0.1072005649096604
 10
3.871511798830162
 20
4.143900019468864
 30
0.0
 10
3.872020768197213
 20
4.143900019468864
 30
0.0
 10
3.87253230187537
 20
4.143898492154674
 30
0.0
 10
3.885462239540675
 20
4.143816733825362
 30
0.0
 10
3.899411929888809
 20
4.14316487814324
 30
0.0
 10
3.91448503589477
 20
4.136318605028586
 30
0.0
 10
3.916389568693325
 20
4.135327849347346
 30
0.0
 10
3.918253280725167
 20
4.134151865976717
 30
0.0
  0
LINE
  5
7A
330
2
100
AcDbEntity
  8
AM_VIS
100
AcDbLine
 10
3.822336984645989
 20
3.913900019468866
 30
0.0
 11
3.822336984645989
 21
4.113900019468866
 31
0.0
  0
LINE
  5
7B
330
2
100
AcDbEntity
  8
AM_VIS
100
AcDbLine
 10
3.822336984646025
 20
3.913900019468866
 30
0.0
 11
3.922795398326851
 21
3.913900019468866
 31
0.0
  0
LINE
  5
7C
330
2
100
AcDbEntity
  8
AM_VIS
100
AcDbLine
 10
3.922795398326858
 20
3.913900019468866
 30
0.0
 11
3.922795398326858
 21
4.113900019468866
 31
0.0
  0
LINE
  5
7E
330
2
100
AcDbEntity
  8
AM_VIS
100
AcDbLine
 10
3.821656346987265
 20
4.143900019468864
 30
0.0
 11
3.871511798830164
 21
4.143900019468864
 31
0.0
  0
SPLINE
  5
7F
330
2
100
AcDbEntity
  8
AM_VIS
100
AcDbSpline
210
0.0
220
0.0
230
1.0
 70
     8
 71
     3
 72
    10
 73
     6
 74
     0
 42
0.0000000001
 43
0.0000000001
 40
0.4372965095329726
 40
0.4372965095329726
 40
0.4372965095329726
 40
0.4372965095329726
 40
0.4787268005813996
 40
0.4787268005813996
 40
0.4808173816459805
 40
0.4808173816459805
 40
0.4808173816459805
 40
0.4808173816459805
 10
3.931355265364613
 20
4.13977966192679
 30
0.0
 10
3.943408840705074
 20
4.143373906792088
 30
0.0
 10
3.957044578724187
 20
4.143829972763995
 30
0.0
 10
3.971972171058843
 20
4.143898473754179
 30
0.0
 10
3.97269070209175
 20
4.143900446505985
 30
0.0
 10
3.973410380295494
 20
4.143900019468865
 30
0.0
  0
SPLINE
  5
80
330
2
100
AcDbEntity
  8
AM_VIS
100
AcDbSpline
210
0.0
220
0.0
230
1.0
 70
     8
 71
     3
 72
    10
 73
     6
 74
     0
 42
0.0000000001
 43
0.0000000001
 40
0.4217148357922297
 40
0.4217148357922297
 40
0.4217148357922297
 40
0.4217148357922297
 40
0.4285458330708223
 40
0.4285458330708223
 40
0.4372965095329726
 40
0.4372965095329726
 40
0.4372965095329726
 40
0.4372965095329726
 10
3.918253280722209
 20
4.134151865981132
 30
0.0
 10
3.920117677486409
 20
4.135326322045235
 30
0.0
 10
3.922054621995163
 20
4.136317630993975
 30
0.0
 10
3.926323577666529
 20
4.138188729469276
 30
0.0
 10
3.928800713883082
 20
4.139076135164835
 30
0.0
 10
3.931355265364613
 20
4.13977966192679
 30
0.0
  0
ELLIPSE
  5
81
330
2
100
AcDbEntity
  8
AM_VIS
100
AcDbEllipse
 10
4.141032081104583
 20
4.113900019468866
 30
0.0
 11
0.0
 21
-0.03
 31
0.0
210
0.0
220
0.0
230
1.0
 40
0.5773518012563547
 41
3.97148365761889
 42
4.712388980384688
  0
SPLINE
  5
82
330
2
100
AcDbEntity
  8
AM_VIS
100
AcDbSpline
210
0.0
220
0.0
230
1.0
 70
     8
 71
     3
 72
    12
 73
     8
 74
     0
 42
0.0000000001
 43
0.0000000001
 40
0.0480903864459962
 40
0.0480903864459962
 40
0.0480903864459962
 40
0.0480903864459962
 40
0.0501809675105773
 40
0.0501809675105773
 40
0.1003619350211546
 40
0.1003619350211546
 40
0.1071990546072009
 40
0.1071990546072009
 40
0.1071990546072009
 40
0.1071990546072009
 10
4.07308986665075
 20
4.143900019468864
 30
0.0
 10
4.073809602513772
 20
4.143900019468864
 30
0.0
 10
4.0745280758874
 20
4.143898473754179
 30
0.0
 10
4.092457136817177
 20
4.14381619937267
 30
0.0
 10
4.10882589407544
 20
4.14316381466884
 30
0.0
 10
4.124447302297141
 20
4.136316895807224
 30
0.0
 10
4.12638749717691
 20
4.135325508505685
 30
0.0
 10
4.128251975074892
 20
4.134148705096832
 30
0.0
  0
LINE
  5
83
330
2
100
AcDbEntity
  8
AM_VIS
100
AcDbLine
 10
3.922795398326858
 20
3.913900019468866
 30
0.0
 11
4.123711527066888
 21
3.913900019468866
 31
0.0
  0
LINE
  5
84
330
2
100
AcDbEntity
  8
AM_VIS
100
AcDbLine
 10
4.123711527066888
 20
3.913900019468866
 30
0.0
 11
4.123711527066888
 21
4.113900019468866
 31
0.0
  0
LINE
  5
85
330
2
100
AcDbEntity
  8
AM_VIS
100
AcDbLine
 10
3.973410380295494
 20
4.143900019468864
 30
0.0
 11
4.073089866650749
 21
4.143900019468864
 31
0.0
  0
SPLINE
  5
86
330
2
100
AcDbEntity
  8
AM_VIS
100
AcDbSpline
210
0.0
220
0.0
230
1.0
 70
     8
 71
     3
 72
    10
 73
     6
 74
     0
 42
0.0000000001
 43
0.0000000001
 40
0.4372752514382369
 40
0.4372752514382369
 40
0.4372752514382369
 40
0.4372752514382369
 40
0.4787139840974848
 40
0.4787139840974848
 40
0.4808109752564034
 40
0.4808109752564034
 40
0.4808109752564034
 40
0.4808109752564034
 10
4.140825631126757
 20
4.139776767938862
 30
0.0
 10
4.151906106930882
 20
4.143373269934826
 30
0.0
 10
4.16320418719879
 20
4.143829737486374
 30
0.0
 10
4.173975277153008
 20
4.143898464737296
 30
0.0
 10
4.174491411117146
 20
4.14390044911208
 30
0.0
 10
4.175005292605763
 20
4.143900019468865
 30
0.0
  0
SPLINE
  5
87
330
2
100
AcDbEntity
  8
AM_VIS
100
AcDbSpline
210
0.0
220
0.0
230
1.0
 70
     8
 71
     3
 72
    10
 73
     6
 74
     0
 42
0.0000000001
 43
0.0000000001
 40
0.4216984608841871
 40
0.4216984608841871
 40
0.4216984608841871
 40
0.4216984608841871
 40
0.4285341772469455
 40
0.4285341772469455
 40
0.4372752514382369
 40
0.4372752514382369
 40
0.4372752514382369
 40
0.4372752514382369
 10
4.128251975073691
 20
4.134148705101241
 30
0.0
 10
4.130115531954288
 20
4.135324270409459
 30
0.0
 10
4.132021081359383
 20
4.136316420451969
 30
0.0
 10
4.13613880892195
 20
4.138187004722762
 30
0.0
 10
4.138470250207826
 20
4.139073653731989
 30
0.0
 10
4.140825631126757
 20
4.139776767938862
 30
0.0
  0
ELLIPSE
  5
88
330
2
100
AcDbEntity
  8
AM_VIS
100
AcDbEllipse
 10
4.25881091093726
 20
4.113900019468866
 30
0.0
 11
-0.0346409701895578
 21
0.0
 31
0.0
210
0.0
220
0.0
230
1.0
 40
0.8660265528314559
 41
5.542308945632528
 42
6.283185307179586
  0
SPLINE
  5
89
330
2
100
AcDbEntity
  8
AM_VIS
100
AcDbSpline
210
0.0
220
0.0
230
1.0
 70
     8
 71
     3
 72
    12
 73
     8
 74
     0
 42
0.0000000001
 43
0.0000000001
 40
0.0480828156916213
 40
0.0480828156916213
 40
0.0480828156916213
 40
0.0480828156916213
 40
0.0501798068505394
 40
0.0501798068505394
 40
0.1003596137010788
 40
0.1003596137010788
 40
0.1071965716182484
 40
0.1071965716182484
 40
0.1071965716182484
 40
0.1071965716182484
 10
4.224837073167158
 20
4.143900019468864
 30
0.0
 10
4.225045321588659
 20
4.143900019468864
 30
0.0
 10
4.225249686358402
 20
4.143898464737295
 30
0.0
 10
4.230246813888538
 20
4.143815938473826
 30
0.0
 10
4.232666750955338
 20
4.14316329565028
 30
0.0
 10
4.233215348975797
 20
4.136316271356291
 30
0.0
 10
4.233250123471449
 20
4.135324873443432
 30
0.0
 10
4.233250123471378
 20
4.134148064010501
 30
0.0
  0
LINE
  5
8A
330
2
100
AcDbEntity
  8
AM_VIS
100
AcDbLine
 10
4.123711527066889
 20
3.913900019468866
 30
0.0
 11
4.224169940747689
 21
3.913900019468866
 31
0.0
  0
LINE
  5
8B
330
2
100
AcDbEntity
  8
AM_VIS
100
AcDbLine
 10
4.224169940747739
 20
3.913900019468866
 30
0.0
 11
4.224169940747739
 21
4.113900019468866
 31
0.0
  0
LINE
  5
8C
330
2
100
AcDbEntity
  8
AM_VIS
100
AcDbLine
 10
4.175005292605763
 20
4.143900019468864
 30
0.0
 11
4.224837073167156
 21
4.143900019468864
 31
0.0
  0
LINE
  5
8F
330
2
100
AcDbEntity
  8
AM_VIS
100
AcDbLine
 10
3.813250123473136
 20
4.163900019468867
 30
0.0
 11
4.233250123473135
 21
4.163900019468867
 31
0.0
  0
LINE
  5
90
330
2
100
AcDbEntity
  8
AM_VIS
100
AcDbLine
 10
4.194750123473138
 20
4.22640001946886
 30
0.0
 11
3.851750123473134
 21
4.22640001946886
 31
0.0
  0
LINE
  5
91
330
2
100
AcDbEntity
  8
AM_VIS
100
AcDbLine
 10
4.179450123473142
 20
4.19515001946886
 30
0.0
 11
3.867050123473131
 21
4.19515001946886
 31
0.0
  0
LINE
  5
92
330
2
100
AcDbEntity
  8
AM_VIS
100
AcDbLine
 10
4.141375123473132
 20
5.893900019468864
 30
0.0
 11
3.905125123473133
 21
5.893900019468863
 31
0.0
  0
LINE
  5
93
330
2
100
AcDbEntity
  8
AM_VIS
100
AcDbLine
 10
4.172625123473132
 20
5.862650019468864
 30
0.0
 11
3.873875123473133
 21
5.862650019468863
 31
0.0
  0
CIRCLE
  5
95
330
2
100
AcDbEntity
  8
AM_VIS
100
AcDbCircle
 10
4.335250123473137
 20
6.34960399975092
 30
0.0
 40
0.2025
  0
CIRCLE
  5
96
330
2
100
AcDbEntity
  8
AM_VIS
100
AcDbCircle
 10
3.960250123473141
 20
6.34960399975092
 30
0.0
 40
0.125
  0
CIRCLE
  5
97
330
2
100
AcDbEntity
  8
AM_VIS
100
AcDbCircle
 10
4.710250123473137
 20
6.34960399975092
 30
0.0
 40
0.125
  0
LINE
  5
98
330
2
100
AcDbEntity
  8
AM_VIS
100
AcDbLine
 10
3.710250123473141
 20
5.97460399975092
 30
0.0
 11
3.710250123473141
 21
6.97460399975092
 31
0.0
  0
LINE
  5
99
330
2
100
AcDbEntity
  8
AM_VIS
100
AcDbLine
 10
4.960250123473137
 20
5.97460399975092
 30
0.0
 11
4.960250123473137
 21
6.97460399975092
 31
0.0
  0
LINE
  5
9A
330
2
100
AcDbEntity
  8
AM_VIS
100
AcDbLine
 10
4.960250123473137
 20
6.97460399975092
 30
0.0
 11
3.710250123473141
 21
6.97460399975092
 31
0.0
  0
LINE
  5
9B
330
2
100
AcDbEntity
  8
AM_VIS
100
AcDbLine
 10
4.960250123473137
 20
5.97460399975092
 30
0.0
 11
3.710250123473141
 21
5.97460399975092
 31
0.0
  0
CIRCLE
  5
A0
330
2
100
AcDbEntity
  8
AM_VIS
100
AcDbCircle
 10
6.960750123473133
 20
0.6046039997509194
 30
0.0
 40
0.187500000012
  0
CIRCLE
  5
A1
330
2
100
AcDbEntity
  8
AM_VIS
100
AcDbCircle
 10
4.335250123473134
 20
6.349603999750921
 30
0.0
 40
0.187500000012
  0
LINE
  5
A4
330
2
100
AcDbEntity
  8
AM_VIS
100
AcDbLine
 10
6.906623535733143
 20
0.5108539997449216
 30
0.0
 11
6.852496947993153
 21
0.6046039997509203
 31
0.0
  0
LINE
  5
A5
330
2
100
AcDbEntity
  8
AM_VIS
100
AcDbLine
 10
4.281123535733144
 20
6.255853999744923
 30
0.0
 11
4.226996947993153
 21
6.349603999750922
 31
0.0
  0
LINE
  5
A6
330
2
100
AcDbEntity
  8
AM_VIS
100
AcDbLine
 10
6.852496947993149
 20
0.6046039997509203
 30
0.0
 11
6.906623535733141
 21
0.6983539997569213
 31
0.0
  0
LINE
  5
A7
330
2
100
AcDbEntity
  8
AM_VIS
100
AcDbLine
 10
4.22699694799315
 20
6.349603999750922
 30
0.0
 11
4.281123535733142
 21
6.443353999756923
 31
0.0
  0
LINE
  5
A8
330
2
100
AcDbEntity
  8
AM_VIS
100
AcDbLine
 10
6.906623535733143
 20
0.698353999756924
 30
0.0
 11
7.014876711213124
 21
0.698353999756924
 31
0.0
  0
LINE
  5
A9
330
2
100
AcDbEntity
  8
AM_VIS
100
AcDbLine
 10
4.281123535733144
 20
6.443353999756925
 30
0.0
 11
4.389376711213124
 21
6.443353999756925
 31
0.0
  0
LINE
  5
AA
330
2
100
AcDbEntity
  8
AM_VIS
100
AcDbLine
 10
7.014876711213124
 20
0.69835399975692
 30
0.0
 11
7.069003298953115
 21
0.6046039997509194
 31
0.0
  0
LINE
  5
AB
330
2
100
AcDbEntity
  8
AM_VIS
100
AcDbLine
 10
4.389376711213124
 20
6.443353999756921
 30
0.0
 11
4.443503298953115
 21
6.349603999750921
 31
0.0
  0
LINE
  5
AC
330
2
100
AcDbEntity
  8
AM_VIS
100
AcDbLine
 10
7.069003298953116
 20
0.6046039997509185
 30
0.0
 11
7.014876711213126
 21
0.5108539997449207
 31
0.0
  0
LINE
  5
AD
330
2
100
AcDbEntity
  8
AM_VIS
100
AcDbLine
 10
4.443503298953116
 20
6.34960399975092
 30
0.0
 11
4.389376711213126
 21
6.255853999744923
 31
0.0
  0
LINE
  5
AE
330
2
100
AcDbEntity
  8
AM_VIS
100
AcDbLine
 10
7.014876711213124
 20
0.5108539997449224
 30
0.0
 11
6.906623535733144
 21
0.5108539997449224
 31
0.0
  0
LINE
  5
AF
330
2
100
AcDbEntity
  8
AM_VIS
100
AcDbLine
 10
4.389376711213124
 20
6.255853999744924
 30
0.0
 11
4.281123535733144
 21
6.255853999744924
 31
0.0
  0
LINE
  5
BE
330
2
100
AcDbEntity
  8
AM_VIS
100
AcDbLine
 10
3.960756801920616
 20
3.780164526991979
 30
0.0
 11
4.085756801920616
 21
3.780164526991979
 31
0.0
  0
LINE
  5
C0
330
2
100
AcDbEntity
  8
AM_VIS
100
AcDbLine
 10
3.914756801920617
 20
5.943914526991983
 30
0.0
 11
4.131756801920616
 21
5.943914526991983
 31
0.0
  0
LINE
  5
C2
330
2
100
AcDbEntity
  8
AM_VIS
100
AcDbLine
 10
5.023250123473134
 20
5.733579545369768
 30
0.0
 11
4.773250123473129
 21
5.733579545369768
 31
0.0
  0
LINE
  5
C3
330
2
100
AcDbEntity
  8
AM_VIS
100
AcDbLine
 10
4.773250123473133
 20
5.733579545369768
 30
0.0
 11
4.523250123473134
 21
5.733579545369768
 31
0.0
  0
LINE
  5
C4
330
2
100
AcDbEntity
  8
AM_VIS
100
AcDbLine
 10
4.554750123473134
 20
3.913579545369768
 30
0.0
 11
4.991750123473133
 21
3.913579545369768
 31
0.0
  0
LINE
  5
C5
330
2
100
AcDbEntity
  8
AM_VIS
100
AcDbLine
 10
4.523250123473134
 20
4.173579545369773
 30
0.0
 11
5.023250123473134
 21
4.173579545369773
 31
0.0
  0
LINE
  5
C7
330
2
100
AcDbEntity
  8
AM_VIS
100
AcDbLine
 10
4.826583456793136
 20
5.973919665965845
 30
0.0
 11
4.719916790153137
 21
5.973919665965845
 31
0.0
  0
LINE
  5
C9
330
2
100
AcDbEntity
  8
AM_VIS
100
AcDbLine
 10
6.469916790153132
 20
4.292600299053637
 30
0.0
 11
6.576583456793131
 21
4.292600299053637
 31
0.0
  0
CIRCLE
  5
CA
330
2
100
AcDbEntity
  8
AM_VIS
100
AcDbCircle
 10
5.64825012347314
 20
6.29460399975092
 30
0.0
 40
0.1695
  0
CIRCLE
  5
CB
330
2
100
AcDbEntity
  8
AM_VIS
100
AcDbCircle
 10
5.64825012347314
 20
6.29460399975092
 30
0.0
 40
0.1151535874439447
  0
CIRCLE
  5
CC
330
2
100
AcDbEntity
  8
AM_VIS
100
AcDbCircle
 10
5.64825012347314
 20
6.29460399975092
 30
0.0
 40
0.1094999999999979
  0
LINE
  5
CF
330
2
100
AcDbEntity
  8
AM_VIS
100
AcDbLine
 10
5.648250123473026
 20
6.042227956681175
 30
0.0
 11
5.429686058867663
 21
6.16841597821628
 31
0.0
  0
LINE
  5
D0
330
2
100
AcDbEntity
  8
AM_VIS
100
AcDbLine
 10
5.866814188078388
 20
6.168415978216282
 30
0.0
 11
5.648250123473025
 21
6.042227956681177
 31
0.0
  0
LINE
  5
D1
330
2
100
AcDbEntity
  8
AM_VIS
100
AcDbLine
 10
5.866814188078388
 20
6.420792021286468
 30
0.0
 11
5.866814188078388
 21
6.168415978216282
 31
0.0
  0
LINE
  5
D2
330
2
100
AcDbEntity
  8
AM_VIS
100
AcDbLine
 10
5.648250123473026
 20
6.546980042821575
 30
0.0
 11
5.866814188078389
 21
6.420792021286469
 31
0.0
  0
LINE
  5
D3
330
2
100
AcDbEntity
  8
AM_VIS
100
AcDbLine
 10
5.429686058867664
 20
6.420792021286468
 30
0.0
 11
5.648250123473027
 21
6.546980042821573
 31
0.0
  0
LINE
  5
D4
330
2
100
AcDbEntity
  8
AM_VIS
100
AcDbLine
 10
5.429686058867664
 20
6.168415978216282
 30
0.0
 11
5.429686058867664
 21
6.420792021286468
 31
0.0
  0
LINE
  5
D7
330
2
100
AcDbEntity
  8
AM_VIS
100
AcDbLine
 10
8.14825012347314
 20
5.165012541412552
 30
0.0
 11
7.64825012347314
 21
5.165012541412552
 31
0.0
  0
LINE
  5
D9
330
2
100
AcDbEntity
  8
AM_VIS
100
AcDbLine
 10
8.14825012347314
 20
-1.084987458587447
 30
0.0
 11
8.14825012347314
 21
5.165012541412552
 31
0.0
  0
LINE
  5
DA
330
2
100
AcDbEntity
  8
AM_VIS
100
AcDbLine
 10
7.648250123473141
 20
-1.084987458587447
 30
0.0
 11
7.648250123473141
 21
5.165012541412552
 31
0.0
  0
LINE
  5
DC
330
2
100
AcDbEntity
  8
AM_VIS
100
AcDbLine
 10
7.101756801920613
 20
6.000691724443827
 30
0.0
 11
7.444756801920616
 21
6.000691724443827
 31
0.0
  0
SPLINE
  5
DD
330
2
100
AcDbEntity
  8
AM_VIS
100
AcDbSpline
210
0.0
220
0.0
230
1.0
 70
     8
 71
     3
 72
    12
 73
     8
 74
     0
 42
0.0000000001
 43
0.0000000001
 40
0.4217407258248198
 40
0.4217407258248198
 40
0.4217407258248198
 40
0.4217407258248198
 40
0.428569718413665
 40
0.428569718413665
 40
0.4787530642830522
 40
0.4787530642830522
 40
0.480830512687666
 40
0.480830512687666
 40
0.480830512687666
 40
0.480830512687666
 10
7.483256801918857
 20
6.280437358629223
 30
0.0
 10
7.483256801918921
 20
6.27926247674153
 30
0.0
 10
7.483222105877457
 20
6.27827255285416
 30
0.0
 10
7.482674164772012
 20
6.271426865769447
 30
0.0
 10
7.480254494871887
 20
6.270775010087325
 30
0.0
 10
7.475259213181308
 20
6.270693251758013
 30
0.0
 10
7.475056801722088
 20
6.270691724443823
 30
0.0
 10
7.474850578406487
 20
6.270691724443823
 30
0.0
  0
ELLIPSE
  5
DE
330
2
100
AcDbEntity
  8
AM_VIS
100
AcDbEllipse
 10
7.508810910937297
 20
6.30069172444382
 30
0.0
 11
-0.0346409701895607
 21
0.0
 31
0.0
210
0.0
220
0.0
230
1.0
 40
0.8660265528313837
 41
0.0000000000000009
 42
0.7411619599954367
  0
ELLIPSE
  5
DF
330
2
100
AcDbEntity
  8
AM_VIS
100
AcDbEllipse
 10
7.391032081104592
 20
6.30069172444382
 30
0.0
 11
0.0
 21
0.03
 31
0.0
210
0.0
220
0.0
230
1.0
 40
0.5773518012562936
 41
1.570796326794896
 42
2.311844454236955
  0
SPLINE
  5
E0
330
2
100
AcDbEntity
  8
AM_VIS
100
AcDbSpline
210
0.0
220
0.0
230
1.0
 70
     8
 71
     3
 72
    12
 73
     8
 74
     0
 42
0.0000000001
 43
0.0000000001
 40
0.0481058974647739
 40
0.0481058974647739
 40
0.0481058974647739
 40
0.0481058974647739
 40
0.0501833458693873
 40
0.0501833458693873
 40
0.1003666917387745
 40
0.1003666917387745
 40
0.1072005649096604
 40
0.1072005649096604
 40
0.1072005649096604
 40
0.1072005649096604
 10
7.424995126563588
 20
6.270691724443823
 30
0.0
 10
7.424486157196538
 20
6.270691724443823
 30
0.0
 10
7.423974623518381
 20
6.270693251758013
 30
0.0
 10
7.411044685853076
 20
6.270775010087325
 30
0.0
 10
7.397094995504941
 20
6.271426865769447
 30
0.0
 10
7.382021889498981
 20
6.278273138884101
 30
0.0
 10
7.380117356700425
 20
6.279263894565341
 30
0.0
 10
7.378253644668584
 20
6.28043987793597
 30
0.0
  0
LINE
  5
E1
330
2
100
AcDbEntity
  8
AM_VIS
100
AcDbLine
 10
7.474169940747762
 20
6.50069172444382
 30
0.0
 11
7.474169940747762
 21
6.30069172444382
 31
0.0
  0
LINE
  5
E2
330
2
100
AcDbEntity
  8
AM_VIS
100
AcDbLine
 10
7.474169940747725
 20
6.50069172444382
 30
0.0
 11
7.3737115270669
 21
6.50069172444382
 31
0.0
  0
LINE
  5
E3
330
2
100
AcDbEntity
  8
AM_VIS
100
AcDbLine
 10
7.373711527066893
 20
6.50069172444382
 30
0.0
 11
7.373711527066893
 21
6.30069172444382
 31
0.0
  0
LINE
  5
E5
330
2
100
AcDbEntity
  8
AM_VIS
100
AcDbLine
 10
7.474850578406486
 20
6.270691724443823
 30
0.0
 11
7.424995126563587
 21
6.270691724443823
 31
0.0
  0
SPLINE
  5
E6
330
2
100
AcDbEntity
  8
AM_VIS
100
AcDbSpline
210
0.0
220
0.0
230
1.0
 70
     8
 71
     3
 72
    10
 73
     6
 74
     0
 42
0.0000000001
 43
0.0000000001
 40
0.4372965095329724
 40
0.4372965095329724
 40
0.4372965095329724
 40
0.4372965095329724
 40
0.4787268005813996
 40
0.4787268005813996
 40
0.4808173816459805
 40
0.4808173816459805
 40
0.4808173816459805
 40
0.4808173816459805
 10
7.365151660029138
 20
6.274812081985896
 30
0.0
 10
7.353098084688677
 20
6.271217837120599
 30
0.0
 10
7.339462346669563
 20
6.270761771148691
 30
0.0
 10
7.324534754334908
 20
6.270693270158508
 30
0.0
 10
7.323816223302001
 20
6.270691297406701
 30
0.0
 10
7.323096545098257
 20
6.27069172444382
 30
0.0
  0
SPLINE
  5
E7
330
2
100
AcDbEntity
  8
AM_VIS
100
AcDbSpline
210
0.0
220
0.0
230
1.0
 70
     8
 71
     3
 72
    10
 73
     6
 74
     0
 42
0.0000000001
 43
0.0000000001
 40
0.4217148357922298
 40
0.4217148357922298
 40
0.4217148357922298
 40
0.4217148357922298
 40
0.4285458330708223
 40
0.4285458330708223
 40
0.4372965095329724
 40
0.4372965095329724
 40
0.4372965095329724
 40
0.4372965095329724
 10
7.37825364467154
 20
6.280439877931553
 30
0.0
 10
7.376389247907341
 20
6.27926542186745
 30
0.0
 10
7.374452303398586
 20
6.278274112918712
 30
0.0
 10
7.370183347727222
 20
6.276403014443411
 30
0.0
 10
7.367706211510669
 20
6.275515608747852
 30
0.0
 10
7.365151660029139
 20
6.274812081985897
 30
0.0
  0
ELLIPSE
  5
E8
330
2
100
AcDbEntity
  8
AM_VIS
100
AcDbEllipse
 10
7.155474844289168
 20
6.30069172444382
 30
0.0
 11
0.0
 21
0.03
 31
0.0
210
0.0
220
0.0
230
0.9999999999999998
 40
0.5773518012563545
 41
3.971483657618885
 42
4.712388980384688
  0
SPLINE
  5
E9
330
2
100
AcDbEntity
  8
AM_VIS
100
AcDbSpline
210
0.0
220
0.0
230
1.0
 70
     8
 71
     3
 72
    12
 73
     8
 74
     0
 42
0.0000000001
 43
0.0000000001
 40
0.0480903864459962
 40
0.0480903864459962
 40
0.0480903864459962
 40
0.0480903864459962
 40
0.0501809675105773
 40
0.0501809675105773
 40
0.1003619350211546
 40
0.1003619350211546
 40
0.1071990546072009
 40
0.1071990546072009
 40
0.1071990546072009
 40
0.1071990546072009
 10
7.223417058743001
 20
6.270691724443823
 30
0.0
 10
7.222697322879978
 20
6.270691724443823
 30
0.0
 10
7.221978849506351
 20
6.270693270158508
 30
0.0
 10
7.204049788576574
 20
6.270775544540017
 30
0.0
 10
7.187681031318311
 20
6.271427929243847
 30
0.0
 10
7.172059623096609
 20
6.278274848105462
 30
0.0
 10
7.170119428216841
 20
6.279266235407002
 30
0.0
 10
7.168254950318859
 20
6.280443038815855
 30
0.0
  0
LINE
  5
EA
330
2
100
AcDbEntity
  8
AM_VIS
100
AcDbLine
 10
7.373711527066893
 20
6.50069172444382
 30
0.0
 11
7.172795398326863
 21
6.50069172444382
 31
0.0
  0
LINE
  5
EB
330
2
100
AcDbEntity
  8
AM_VIS
100
AcDbLine
 10
7.172795398326863
 20
6.50069172444382
 30
0.0
 11
7.172795398326863
 21
6.30069172444382
 31
0.0
  0
LINE
  5
EC
330
2
100
AcDbEntity
  8
AM_VIS
100
AcDbLine
 10
7.323096545098257
 20
6.270691724443823
 30
0.0
 11
7.223417058743001
 21
6.270691724443823
 31
0.0
  0
SPLINE
  5
ED
330
2
100
AcDbEntity
  8
AM_VIS
100
AcDbSpline
210
0.0
220
0.0
230
1.0
 70
     8
 71
     3
 72
    10
 73
     6
 74
     0
 42
0.0000000001
 43
0.0000000001
 40
0.4372752514382368
 40
0.4372752514382368
 40
0.4372752514382368
 40
0.4372752514382368
 40
0.4787139840974848
 40
0.4787139840974848
 40
0.4808109752564034
 40
0.4808109752564034
 40
0.4808109752564034
 40
0.4808109752564034
 10
7.155681294266993
 20
6.274814975973823
 30
0.0
 10
7.144600818462867
 20
6.271218473977859
 30
0.0
 10
7.133302738194962
 20
6.270762006426312
 30
0.0
 10
7.122531648240742
 20
6.270693279175389
 30
0.0
 10
7.122015514276605
 20
6.270691294800607
 30
0.0
 10
7.121501632787988
 20
6.27069172444382
 30
0.0
  0
SPLINE
  5
EE
330
2
100
AcDbEntity
  8
AM_VIS
100
AcDbSpline
210
0.0
220
0.0
230
1.0
 70
     8
 71
     3
 72
    10
 73
     6
 74
     0
 42
0.0000000001
 43
0.0000000001
 40
0.4216984608841871
 40
0.4216984608841871
 40
0.4216984608841871
 40
0.4216984608841871
 40
0.4285341772469455
 40
0.4285341772469455
 40
0.4372752514382368
 40
0.4372752514382368
 40
0.4372752514382368
 40
0.4372752514382368
 10
7.16825495032006
 20
6.280443038811446
 30
0.0
 10
7.166391393439463
 20
6.279267473503226
 30
0.0
 10
7.164485844034367
 20
6.278275323460718
 30
0.0
 10
7.160368116471801
 20
6.276404739189925
 30
0.0
 10
7.158036675185925
 20
6.275518090180698
 30
0.0
 10
7.155681294266993
 20
6.274814975973824
 30
0.0
  0
ELLIPSE
  5
EF
330
2
100
AcDbEntity
  8
AM_VIS
100
AcDbEllipse
 10
7.037696014456491
 20
6.30069172444382
 30
0.0
 11
0.0346409701895578
 21
0.0
 31
0.0
210
0.0
220
0.0
230
1.0
 40
0.8660265528314559
 41
5.54230894563252
 42
6.283185307179586
  0
SPLINE
  5
F0
330
2
100
AcDbEntity
  8
AM_VIS
100
AcDbSpline
210
0.0
220
0.0
230
1.0
 70
     8
 71
     3
 72
    12
 73
     8
 74
     0
 42
0.0000000001
 43
0.0000000001
 40
0.0480828156916213
 40
0.0480828156916213
 40
0.0480828156916213
 40
0.0480828156916213
 40
0.0501798068505394
 40
0.0501798068505394
 40
0.1003596137010788
 40
0.1003596137010788
 40
0.1071965716182484
 40
0.1071965716182484
 40
0.1071965716182484
 40
0.1071965716182484
 10
7.071669852226593
 20
6.270691724443823
 30
0.0
 10
7.071461603805092
 20
6.270691724443823
 30
0.0
 10
7.071257239035348
 20
6.270693279175391
 30
0.0
 10
7.066260111505213
 20
6.27077580543886
 30
0.0
 10
7.063840174438412
 20
6.271428448262406
 30
0.0
 10
7.063291576417954
 20
6.278275472556396
 30
0.0
 10
7.063256801922301
 20
6.279266870469255
 30
0.0
 10
7.063256801922372
 20
6.280443679902186
 30
0.0
  0
LINE
  5
F1
330
2
100
AcDbEntity
  8
AM_VIS
100
AcDbLine
 10
7.172795398326861
 20
6.50069172444382
 30
0.0
 11
7.072336984646061
 21
6.50069172444382
 31
0.0
  0
LINE
  5
F2
330
2
100
AcDbEntity
  8
AM_VIS
100
AcDbLine
 10
7.072336984646012
 20
6.50069172444382
 30
0.0
 11
7.072336984646012
 21
6.30069172444382
 31
0.0
  0
LINE
  5
F3
330
2
100
AcDbEntity
  8
AM_VIS
100
AcDbLine
 10
7.121501632787988
 20
6.270691724443823
 30
0.0
 11
7.071669852226594
 21
6.270691724443823
 31
0.0
  0
LINE
  5
F6
330
2
100
AcDbEntity
  8
AM_VIS
100
AcDbLine
 10
7.483256801920615
 20
6.25069172444382
 30
0.0
 11
7.063256801920615
 21
6.25069172444382
 31
0.0
  0
LINE
  5
F7
330
2
100
AcDbEntity
  8
AM_VIS
100
AcDbLine
 10
7.101756801920613
 20
6.188191724443827
 30
0.0
 11
7.444756801920616
 21
6.188191724443827
 31
0.0
  0
LINE
  5
F8
330
2
100
AcDbEntity
  8
AM_VIS
100
AcDbLine
 10
7.117056801920609
 20
6.219441724443827
 30
0.0
 11
7.42945680192062
 21
6.219441724443827
 31
0.0
  0
LINE
  5
F9
330
2
100
AcDbEntity
  8
AM_VIS
100
AcDbLine
 10
7.155131801920619
 20
4.520691724443823
 30
0.0
 11
7.391381801920617
 21
4.520691724443824
 31
0.0
  0
LINE
  5
FA
330
2
100
AcDbEntity
  8
AM_VIS
100
AcDbLine
 10
7.123881801920619
 20
4.551941724443822
 30
0.0
 11
7.422631801920617
 21
4.551941724443823
 31
0.0
  0
LINE
  5
FB
330
2
100
AcDbEntity
  8
AM_VIS
100
AcDbLine
 10
7.210756801920619
 20
6.675679253012042
 30
0.0
 11
7.335756801920619
 21
6.675679253012042
 31
0.0
  0
LINE
  5
FD
330
2
100
AcDbEntity
  8
AM_VIS
100
AcDbLine
 10
7.16475680192062
 20
4.511929253012038
 30
0.0
 11
7.381756801920619
 21
4.511929253012038
 31
0.0
  0
LINE
  5
FE
330
2
100
AcDbEntity
  8
AM_VIS
100
AcDbLine
 10
7.19600680192062
 20
4.480679253012038
 30
0.0
 11
7.350506801920619
 21
4.480679253012038
 31
0.0
  0
LINE
  5
124
330
2
100
AcDbEntity
  8
AM_VIS
100
AcDbLine
 10
5.492000123473136
 20
-1.084987458587447
 30
0.0
 11
5.492000123473136
 21
-0.395396000249077
 31
0.0
  0
LINE
  5
126
330
2
100
AcDbEntity
  8
AM_VIS
100
AcDbLine
 10
5.492000123473136
 20
0.268088118127932
 30
0.0
 11
5.492000123473136
 21
0.3794389362420034
 31
0.0
  0
LINE
  5
128
330
2
100
AcDbEntity
  8
AM_VIS
100
AcDbLine
 10
5.492000123473136
 20
0.7037690632607428
 30
0.0
 11
5.492000123473136
 21
0.8151198813739055
 31
0.0
  0
LINE
  5
12B
330
2
100
AcDbEntity
  8
AM_VIS
100
AcDbLine
 10
5.804500123473136
 20
-1.084987458587448
 30
0.0
 11
5.804500123473136
 21
-0.395396000249077
 31
0.0
  0
LINE
  5
12D
330
2
100
AcDbEntity
  8
AM_VIS
100
AcDbLine
 10
5.804500123473136
 20
0.2680881181279311
 30
0.0
 11
5.804500123473136
 21
0.3794389362421349
 31
0.0
  0
LINE
  5
12F
330
2
100
AcDbEntity
  8
AM_VIS
100
AcDbLine
 10
5.804500123473136
 20
0.7037690632606131
 30
0.0
 11
5.804500123473136
 21
0.8151198813739068
 31
0.0
  0
LINE
  5
135
330
2
100
AcDbEntity
  8
AM_VIS
100
AcDbLine
 10
4.273250123473136
 20
-1.084987458587448
 30
0.0
 11
4.273250123473136
 21
-0.395396000249077
 31
0.0
  0
LINE
  5
138
330
2
100
AcDbEntity
  8
AM_VIS
100
AcDbLine
 10
7.023250123473134
 20
-1.084987458587448
 30
0.0
 11
7.023250123473134
 21
-0.3953960002490779
 31
0.0
  0
LINE
  5
14D
330
2
100
AcDbEntity
  8
AM_VIS
100
AcDbLine
 10
6.741750123473133
 20
6.756943760535156
 30
0.0
 11
6.741750123473133
 21
6.52694376053515
 31
0.0
  0
LINE
  5
14E
330
2
100
AcDbEntity
  8
AM_VIS
100
AcDbLine
 10
6.304750123473134
 20
6.756943760535156
 30
0.0
 11
6.304750123473134
 21
6.52694376053515
 31
0.0
  0
ARC
  5
14F
330
2
100
AcDbEntity
  8
AM_VIS
100
AcDbCircle
 10
6.274750123473133
 20
6.526943760535151
 30
0.0
 40
0.03
100
AcDbArc
 50
270.0
 51
0.0000000000004071
  0
ARC
  5
150
330
2
100
AcDbEntity
  8
AM_VIS
100
AcDbCircle
 10
6.771750123473133
 20
6.526943760535151
 30
0.0
 40
0.03
100
AcDbArc
 50
180.0000000000004
 51
270.0
  0
LINE
  5
151
330
2
100
AcDbEntity
  8
AM_VIS
100
AcDbLine
 10
6.773250123473133
 20
6.496943760535151
 30
0.0
 11
6.773250123473133
 21
5.665012541412552
 31
0.0
  0
LINE
  5
153
330
2
100
AcDbEntity
  8
AM_VIS
100
AcDbLine
 10
6.773250123473133
 20
5.165012541412552
 30
0.0
 11
6.773250123473133
 21
4.936943760535156
 31
0.0
  0
LINE
  5
154
330
2
100
AcDbEntity
  8
AM_VIS
100
AcDbLine
 10
6.273250123473133
 20
6.496943760535151
 30
0.0
 11
6.273250123473133
 21
5.665012541412552
 31
0.0
  0
LINE
  5
156
330
2
100
AcDbEntity
  8
AM_VIS
100
AcDbLine
 10
6.273250123473133
 20
5.165012541412553
 30
0.0
 11
6.273250123473133
 21
4.936943760535156
 31
0.0
  0
LINE
  5
15D
330
2
100
AcDbEntity
  8
AM_VIS
100
AcDbLine
 10
3.813250123473136
 20
4.134154385283464
 30
0.0
 11
3.813250123473136
 21
4.163900019468867
 31
0.0
  0
LINE
  5
15E
330
2
100
AcDbEntity
  8
AM_VIS
100
AcDbLine
 10
4.233250123473135
 20
4.134148064010501
 30
0.0
 11
4.233250123473135
 21
4.163900019468867
 31
0.0
  0
LINE
  5
15F
330
2
100
AcDbEntity
  8
AM_VIS
100
AcDbLine
 10
3.851750123473134
 20
4.22640001946886
 30
0.0
 11
3.851750123473134
 21
4.41390001946886
 31
0.0
  0
LINE
  5
160
330
2
100
AcDbEntity
  8
AM_VIS
100
AcDbLine
 10
4.194750123473138
 20
4.22640001946886
 30
0.0
 11
4.194750123473138
 21
4.41390001946886
 31
0.0
  0
LINE
  5
161
330
2
100
AcDbEntity
  8
AM_VIS
100
AcDbLine
 10
3.867050123473131
 20
4.195150019468858
 30
0.0
 11
3.851750123473133
 21
4.22640001946886
 31
0.0
  0
LINE
  5
162
330
2
100
AcDbEntity
  8
AM_VIS
100
AcDbLine
 10
4.179450123473142
 20
4.19515001946886
 30
0.0
 11
4.194750123473138
 21
4.22640001946886
 31
0.0
  0
LINE
  5
163
330
2
100
AcDbEntity
  8
AM_VIS
100
AcDbLine
 10
4.179450123473142
 20
4.19515001946886
 30
0.0
 11
4.194750123473136
 21
4.163900019468866
 31
0.0
  0
LINE
  5
164
330
2
100
AcDbEntity
  8
AM_VIS
100
AcDbLine
 10
3.86705012347313
 20
4.195150019468862
 30
0.0
 11
3.851750123473134
 21
4.163900019468867
 31
0.0
  0
LINE
  5
165
330
2
100
AcDbEntity
  8
AM_VIS
100
AcDbLine
 10
4.141375123473132
 20
5.893900019468864
 30
0.0
 11
4.172625123473132
 21
5.862650019468864
 31
0.0
  0
LINE
  5
166
330
2
100
AcDbEntity
  8
AM_VIS
100
AcDbLine
 10
3.905125123473133
 20
5.893900019468863
 30
0.0
 11
3.873875123473133
 21
5.862650019468863
 31
0.0
  0
LINE
  5
167
330
2
100
AcDbEntity
  8
AM_VIS
100
AcDbLine
 10
3.873875123473142
 20
4.413900019468859
 30
0.0
 11
3.87387512347314
 21
5.165012541412554
 31
0.0
  0
LINE
  5
169
330
2
100
AcDbEntity
  8
AM_VIS
100
AcDbLine
 10
3.873875123473138
 20
5.665012541412554
 30
0.0
 11
3.873875123473138
 21
5.862650019468863
 31
0.0
  0
LINE
  5
16A
330
2
100
AcDbEntity
  8
AM_VIS
100
AcDbLine
 10
4.172625123473133
 20
4.41390001946886
 30
0.0
 11
4.172625123473131
 21
5.165012541412554
 31
0.0
  0
LINE
  5
16C
330
2
100
AcDbEntity
  8
AM_VIS
100
AcDbLine
 10
4.17262512347313
 20
5.665012541412554
 30
0.0
 11
4.172625123473129
 21
5.862650019468864
 31
0.0
  0
LINE
  5
17E
330
2
100
AcDbEntity
  8
AM_VIS
100
AcDbLine
 10
4.085756801920616
 20
3.913900019468866
 30
0.0
 11
4.085756801920616
 21
3.780164526991979
 31
0.0
  0
LINE
  5
180
330
2
100
AcDbEntity
  8
AM_VIS
100
AcDbLine
 10
3.960756801920616
 20
3.913900019468866
 30
0.0
 11
3.960756801920616
 21
3.780164526991979
 31
0.0
  0
LINE
  5
181
330
2
100
AcDbEntity
  8
AM_VIS
100
AcDbLine
 10
4.131756801920616
 20
5.943914526991983
 30
0.0
 11
4.131756801920616
 21
5.893900019468864
 31
0.0
  0
LINE
  5
183
330
2
100
AcDbEntity
  8
AM_VIS
100
AcDbLine
 10
3.914756801920617
 20
5.943914526991983
 30
0.0
 11
3.914756801920617
 21
5.893900019468864
 31
0.0
  0
LINE
  5
186
330
2
100
AcDbEntity
  8
AM_VIS
100
AcDbLine
 10
4.101067329161678
 20
5.97460399975092
 30
0.0
 11
4.131756801920616
 21
5.943914526991982
 31
0.0
  0
LINE
  5
188
330
2
100
AcDbEntity
  8
AM_VIS
100
AcDbLine
 10
3.945446274679555
 20
5.974603999750921
 30
0.0
 11
3.914756801920617
 21
5.943914526991983
 31
0.0
  0
LINE
  5
189
330
2
100
AcDbEntity
  8
AM_VIS
100
AcDbLine
 10
4.991750123473133
 20
4.143579545369773
 30
0.0
 11
4.991750123473133
 21
3.913579545369767
 31
0.0
  0
LINE
  5
18A
330
2
100
AcDbEntity
  8
AM_VIS
100
AcDbLine
 10
4.554750123473134
 20
4.143579545369773
 30
0.0
 11
4.554750123473134
 21
3.913579545369767
 31
0.0
  0
ARC
  5
18B
330
2
100
AcDbEntity
  8
AM_VIS
100
AcDbCircle
 10
5.021750123473133
 20
4.143579545369773
 30
0.0
 40
0.03
100
AcDbArc
 50
89.99999999999914
 51
180.0000000000002
  0
ARC
  5
18C
330
2
100
AcDbEntity
  8
AM_VIS
100
AcDbCircle
 10
4.524750123473134
 20
4.143579545369773
 30
0.0
 40
0.03
100
AcDbArc
 50
0.0000000000002036
 51
90.00000000000083
  0
LINE
  5
18D
330
2
100
AcDbEntity
  8
AM_VIS
100
AcDbLine
 10
5.023250123473134
 20
5.733579545369768
 30
0.0
 11
5.023250123473134
 21
5.665012541412553
 31
0.0
  0
LINE
  5
18F
330
2
100
AcDbEntity
  8
AM_VIS
100
AcDbLine
 10
5.023250123473134
 20
5.165012541412553
 30
0.0
 11
5.023250123473134
 21
4.173579545369773
 31
0.0
  0
LINE
  5
190
330
2
100
AcDbEntity
  8
AM_VIS
100
AcDbLine
 10
4.523250123473134
 20
5.733579545369768
 30
0.0
 11
4.523250123473134
 21
5.665012541412554
 31
0.0
  0
LINE
  5
192
330
2
100
AcDbEntity
  8
AM_VIS
100
AcDbLine
 10
4.523250123473134
 20
5.165012541412553
 30
0.0
 11
4.523250123473134
 21
4.173579545369773
 31
0.0
  0
LINE
  5
194
330
2
100
AcDbEntity
  8
AM_VIS
100
AcDbLine
 10
4.693250123493132
 20
5.733579545369768
 30
0.0
 11
4.693250123493132
 21
5.947252999305844
 31
0.0
  0
LINE
  5
196
330
2
100
AcDbEntity
  8
AM_VIS
100
AcDbLine
 10
4.853250123453135
 20
5.733579545369768
 30
0.0
 11
4.853250123453135
 21
5.947252999305844
 31
0.0
  0
ARC
  5
197
330
2
100
AcDbEntity
  8
AM_VIS
100
AcDbCircle
 10
4.826583456793136
 20
5.947252999305844
 30
0.0
 40
0.02666666666
100
AcDbArc
 50
0.0
 51
90.0
  0
ARC
  5
198
330
2
100
AcDbEntity
  8
AM_VIS
100
AcDbCircle
 10
4.719916790153137
 20
5.947252999305844
 30
0.0
 40
0.02666666666
100
AcDbArc
 50
90.0
 51
180.0
  0
LINE
  5
19A
330
2
100
AcDbEntity
  8
AM_VIS
100
AcDbLine
 10
6.603250123453134
 20
4.936943760535156
 30
0.0
 11
6.603250123453134
 21
4.319266965713637
 31
0.0
  0
LINE
  5
19C
330
2
100
AcDbEntity
  8
AM_VIS
100
AcDbLine
 10
6.443250123493132
 20
4.936943760535156
 30
0.0
 11
6.443250123493132
 21
4.319266965713637
 31
0.0
  0
ARC
  5
19D
330
2
100
AcDbEntity
  8
AM_VIS
100
AcDbCircle
 10
6.469916790153132
 20
4.319266965713637
 30
0.0
 40
0.02666666666
100
AcDbArc
 50
179.9999999999997
 51
270.0
  0
ARC
  5
19E
330
2
100
AcDbEntity
  8
AM_VIS
100
AcDbCircle
 10
6.576583456793131
 20
4.319266965713637
 30
0.0
 40
0.02666666666
100
AcDbArc
 50
270.0
 51
359.9999999999997
  0
LINE
  5
1A5
330
2
100
AcDbEntity
  8
AM_VIS
100
AcDbLine
 10
7.483256801920615
 20
6.280437358629223
 30
0.0
 11
7.483256801920615
 21
6.25069172444382
 31
0.0
  0
LINE
  5
1A6
330
2
100
AcDbEntity
  8
AM_VIS
100
AcDbLine
 10
7.063256801920615
 20
6.280443679902186
 30
0.0
 11
7.063256801920615
 21
6.25069172444382
 31
0.0
  0
LINE
  5
1A7
330
2
100
AcDbEntity
  8
AM_VIS
100
AcDbLine
 10
7.444756801920616
 20
6.188191724443827
 30
0.0
 11
7.444756801920616
 21
6.000691724443827
 31
0.0
  0
LINE
  5
1A8
330
2
100
AcDbEntity
  8
AM_VIS
100
AcDbLine
 10
7.101756801920613
 20
6.188191724443827
 30
0.0
 11
7.101756801920613
 21
6.000691724443827
 31
0.0
  0
LINE
  5
1A9
330
2
100
AcDbEntity
  8
AM_VIS
100
AcDbLine
 10
7.429456801920619
 20
6.219441724443829
 30
0.0
 11
7.444756801920616
 21
6.188191724443827
 31
0.0
  0
LINE
  5
1AA
330
2
100
AcDbEntity
  8
AM_VIS
100
AcDbLine
 10
7.117056801920609
 20
6.219441724443827
 30
0.0
 11
7.101756801920613
 21
6.188191724443827
 31
0.0
  0
LINE
  5
1AB
330
2
100
AcDbEntity
  8
AM_VIS
100
AcDbLine
 10
7.117056801920608
 20
6.219441724443827
 30
0.0
 11
7.101756801920614
 21
6.250691724443821
 31
0.0
  0
LINE
  5
1AC
330
2
100
AcDbEntity
  8
AM_VIS
100
AcDbLine
 10
7.42945680192062
 20
6.219441724443825
 30
0.0
 11
7.444756801920616
 21
6.25069172444382
 31
0.0
  0
LINE
  5
1AD
330
2
100
AcDbEntity
  8
AM_VIS
100
AcDbLine
 10
7.155131801920619
 20
4.520691724443823
 30
0.0
 11
7.123881801920619
 21
4.551941724443823
 31
0.0
  0
LINE
  5
1AE
330
2
100
AcDbEntity
  8
AM_VIS
100
AcDbLine
 10
7.391381801920617
 20
4.520691724443823
 30
0.0
 11
7.422631801920617
 21
4.551941724443823
 31
0.0
  0
LINE
  5
1AF
330
2
100
AcDbEntity
  8
AM_VIS
100
AcDbLine
 10
7.422631801920608
 20
6.000691724443827
 30
0.0
 11
7.422631801920609
 21
5.665012541412552
 31
0.0
  0
LINE
  5
1B1
330
2
100
AcDbEntity
  8
AM_VIS
100
AcDbLine
 10
7.42263180192061
 20
5.165012541412552
 30
0.0
 11
7.422631801920613
 21
4.551941724443823
 31
0.0
  0
LINE
  5
1B2
330
2
100
AcDbEntity
  8
AM_VIS
100
AcDbLine
 10
7.123881801920616
 20
6.000691724443827
 30
0.0
 11
7.123881801920617
 21
5.665012541412552
 31
0.0
  0
LINE
  5
1B4
330
2
100
AcDbEntity
  8
AM_VIS
100
AcDbLine
 10
7.123881801920619
 20
5.165012541412552
 30
0.0
 11
7.123881801920622
 21
4.551941724443823
 31
0.0
  0
LINE
  5
1B5
330
2
100
AcDbEntity
  8
AM_VIS
100
AcDbLine
 10
7.335756801920619
 20
6.675679253012042
 30
0.0
 11
7.335756801920619
 21
6.50069172444382
 31
0.0
  0
LINE
  5
1B7
330
2
100
AcDbEntity
  8
AM_VIS
100
AcDbLine
 10
7.210756801920619
 20
6.675679253012042
 30
0.0
 11
7.210756801920619
 21
6.50069172444382
 31
0.0
  0
LINE
  5
1BA
330
2
100
AcDbEntity
  8
AM_VIS
100
AcDbLine
 10
7.381756801920619
 20
4.520691724443823
 30
0.0
 11
7.381756801920619
 21
4.511929253012038
 31
0.0
  0
LINE
  5
1BC
330
2
100
AcDbEntity
  8
AM_VIS
100
AcDbLine
 10
7.16475680192062
 20
4.520691724443823
 30
0.0
 11
7.16475680192062
 21
4.511929253012038
 31
0.0
  0
LINE
  5
1BD
330
2
100
AcDbEntity
  8
AM_VIS
100
AcDbLine
 10
7.19600680192062
 20
4.480679253012038
 30
0.0
 11
7.16475680192062
 21
4.511929253012038
 31
0.0
  0
LINE
  5
1BE
330
2
100
AcDbEntity
  8
AM_VIS
100
AcDbLine
 10
7.350506801920619
 20
4.480679253012038
 30
0.0
 11
7.381756801920619
 21
4.511929253012038
 31
0.0
  0
CIRCLE
  5
1BF
330
2
100
AcDbEntity
  8
AM_VIS
100
AcDbCircle
 10
7.148250123473142
 20
11.07640551766949
 30
0.0
 40
0.125
  0
CIRCLE
  5
1C0
330
2
100
AcDbEntity
  8
AM_VIS
100
AcDbCircle
 10
7.648250123473142
 20
12.38940551766949
 30
0.0
 40
0.125
  0
CIRCLE
  5
1C1
330
2
100
AcDbEntity
  8
AM_VIS
100
AcDbCircle
 10
7.148250123473142
 20
13.07640551766949
 30
0.0
 40
0.125
  0
CIRCLE
  5
1C2
330
2
100
AcDbEntity
  8
AM_VIS
100
AcDbCircle
 10
8.023250123473143
 20
12.38940551766949
 30
0.0
 40
0.125
  0
CIRCLE
  5
1C3
330
2
100
AcDbEntity
  8
AM_VIS
100
AcDbCircle
 10
5.648250123473143
 20
12.07640551766949
 30
0.0
 40
0.14
  0
CIRCLE
  5
1C4
330
2
100
AcDbEntity
  8
AM_VIS
100
AcDbCircle
 10
4.148250123473143
 20
13.07640551766949
 30
0.0
 40
0.125
  0
CIRCLE
  5
1C5
330
2
100
AcDbEntity
  8
AM_VIS
100
AcDbCircle
 10
3.273250123473142
 20
12.38940551766949
 30
0.0
 40
0.125
  0
CIRCLE
  5
1C6
330
2
100
AcDbEntity
  8
AM_VIS
100
AcDbCircle
 10
3.648250123473142
 20
12.38940551766949
 30
0.0
 40
0.125
  0
CIRCLE
  5
1C7
330
2
100
AcDbEntity
  8
AM_VIS
100
AcDbCircle
 10
4.148250123473143
 20
11.07640551766949
 30
0.0
 40
0.125
  0
LINE
  5
1C8
330
2
100
AcDbEntity
  8
AM_VIS
100
AcDbLine
 10
8.398250123473143
 20
10.57640551766949
 30
0.0
 11
7.601250123473139
 21
10.57640551766949
 31
0.0
  0
LINE
  5
1C9
330
2
100
AcDbEntity
  8
AM_VIS
100
AcDbLine
 10
8.398250123473143
 20
13.57640551766949
 30
0.0
 11
8.398250123473143
 21
10.57640551766949
 31
0.0
  0
LINE
  5
1CA
330
2
100
AcDbEntity
  8
AM_VIS
100
AcDbLine
 10
2.898250123473142
 20
13.57640551766949
 30
0.0
 11
8.398250123473143
 21
13.57640551766949
 31
0.0
  0
LINE
  5
1CB
330
2
100
AcDbEntity
  8
AM_VIS
100
AcDbLine
 10
2.898250123473143
 20
10.57640551766949
 30
0.0
 11
2.898250123473143
 21
13.57640551766949
 31
0.0
  0
LINE
  5
1CC
330
2
100
AcDbEntity
  8
AM_VIS
100
AcDbLine
 10
6.945250123473139
 20
10.57640551766949
 30
0.0
 11
2.898250123473142
 21
10.57640551766949
 31
0.0
  0
LINE
  5
1CD
330
2
100
AcDbEntity
  8
AM_VIS
100
AcDbLine
 10
6.945250123473139
 20
10.88840551766949
 30
0.0
 11
6.945250123473139
 21
10.57640551766949
 31
0.0
  0
LINE
  5
1CE
330
2
100
AcDbEntity
  8
AM_VIS
100
AcDbLine
 10
7.601250123473138
 20
10.88840551766949
 30
0.0
 11
6.945250123473139
 21
10.88840551766949
 31
0.0
  0
LINE
  5
1CF
330
2
100
AcDbEntity
  8
AM_VIS
100
AcDbLine
 10
7.601250123473138
 20
10.57640551766949
 30
0.0
 11
7.601250123473138
 21
10.88840551766949
 31
0.0
  0
LINE
  5
1D3
330
2
100
AcDbEntity
  8
AM_VIS
100
AcDbLine
 10
8.648250123473136
 20
13.5764055176695
 30
0.0
 11
8.648250123473136
 21
13.2169055176695
 31
0.0
  0
LINE
  5
1D4
330
2
100
AcDbEntity
  8
AM_VIS
100
AcDbLine
 10
2.648250123473136
 20
13.5764055176695
 30
0.0
 11
2.898250123473142
 21
13.5764055176695
 31
0.0
  0
LINE
  5
1D5
330
2
100
AcDbEntity
  8
AM_VIS
100
AcDbLine
 10
8.398250123473143
 20
13.5764055176695
 30
0.0
 11
8.648250123473136
 21
13.5764055176695
 31
0.0
  0
LINE
  5
1D6
330
2
100
AcDbEntity
  8
AM_VIS
100
AcDbLine
 10
2.648250123473136
 20
13.2169055176695
 30
0.0
 11
2.648250123473136
 21
13.5764055176695
 31
0.0
  0
LINE
  5
1D8
330
2
100
AcDbEntity
  8
AM_VIS
100
AcDbLine
 10
2.898250123473142
 20
13.2169055176695
 30
0.0
 11
2.648250123473136
 21
13.2169055176695
 31
0.0
  0
LINE
  5
1DA
330
2
100
AcDbEntity
  8
AM_VIS
100
AcDbLine
 10
2.648250123473137
 20
12.9359055176695
 30
0.0
 11
2.898250123473143
 21
12.9359055176695
 31
0.0
  0
LINE
  5
1DC
330
2
100
AcDbEntity
  8
AM_VIS
100
AcDbLine
 10
2.648250123473137
 20
11.21714346662695
 30
0.0
 11
2.648250123473137
 21
12.9359055176695
 31
0.0
  0
LINE
  5
1DE
330
2
100
AcDbEntity
  8
AM_VIS
100
AcDbLine
 10
2.898250123473143
 20
11.21714346662695
 30
0.0
 11
2.648250123473137
 21
11.21714346662695
 31
0.0
  0
LINE
  5
1E0
330
2
100
AcDbEntity
  8
AM_VIS
100
AcDbLine
 10
2.648250123473137
 20
10.93614346662695
 30
0.0
 11
2.898250123473143
 21
10.93614346662695
 31
0.0
  0
LINE
  5
1E2
330
2
100
AcDbEntity
  8
AM_VIS
100
AcDbLine
 10
2.648250123473137
 20
10.0764055176695
 30
0.0
 11
2.648250123473137
 21
10.93614346662695
 31
0.0
  0
LINE
  5
1E3
330
2
100
AcDbEntity
  8
AM_VIS
100
AcDbLine
 10
8.648250123473136
 20
10.0764055176695
 30
0.0
 11
2.648250123473137
 21
10.0764055176695
 31
0.0
  0
LINE
  5
1E4
330
2
100
AcDbEntity
  8
AM_VIS
100
AcDbLine
 10
8.648250123473136
 20
10.93614346662695
 30
0.0
 11
8.648250123473136
 21
10.0764055176695
 31
0.0
  0
LINE
  5
1E6
330
2
100
AcDbEntity
  8
AM_VIS
100
AcDbLine
 10
8.398250123473143
 20
10.93614346662695
 30
0.0
 11
8.648250123473136
 21
10.93614346662695
 31
0.0
  0
LINE
  5
1E8
330
2
100
AcDbEntity
  8
AM_VIS
100
AcDbLine
 10
8.648250123473136
 20
11.21714346662695
 30
0.0
 11
8.398250123473143
 21
11.21714346662695
 31
0.0
  0
LINE
  5
1EA
330
2
100
AcDbEntity
  8
AM_VIS
100
AcDbLine
 10
8.648250123473136
 20
12.9359055176695
 30
0.0
 11
8.648250123473136
 21
11.21714346662695
 31
0.0
  0
LINE
  5
1EC
330
2
100
AcDbEntity
  8
AM_VIS
100
AcDbLine
 10
8.398250123473143
 20
12.9359055176695
 30
0.0
 11
8.648250123473136
 21
12.9359055176695
 31
0.0
  0
LINE
  5
1EE
330
2
100
AcDbEntity
  8
AM_VIS
100
AcDbLine
 10
8.648250123473136
 20
13.2169055176695
 30
0.0
 11
8.398250123473143
 21
13.2169055176695
 31
0.0
  0
LINE
  5
1FD
330
2
100
AcDbEntity
  8
AM_VIS
100
AcDbLine
 10
4.023250123473143
 20
11.0764055076695
 30
0.0
 11
4.273250123473142
 21
11.0764055076695
 31
0.0
  0
LINE
  5
1FF
330
2
100
AcDbEntity
  8
AM_VIS
100
AcDbLine
 10
7.023250123473142
 20
11.0764055076695
 30
0.0
 11
7.273250123473142
 21
11.0764055076695
 31
0.0
  0
LINE
  5
203
330
2
100
AcDbEntity
  8
AM_VIS
100
AcDbLine
 10
4.023250123473143
 20
13.0764055076695
 30
0.0
 11
4.273250123473142
 21
13.0764055076695
 31
0.0
  0
LINE
  5
205
330
2
100
AcDbEntity
  8
AM_VIS
100
AcDbLine
 10
7.023250123473142
 20
13.0764055076695
 30
0.0
 11
7.273250123473142
 21
13.0764055076695
 31
0.0
  0
ARC
  5
209
330
2
100
AcDbEntity
  8
AM_VIS
100
AcDbCircle
 10
3.898250123473136
 20
12.0764055176695
 30
0.0
 40
0.375
100
AcDbArc
 50
110.451803513326
 51
146.7784628694721
  0
ARC
  5
20C
330
2
100
AcDbEntity
  8
AM_VIS
100
AcDbCircle
 10
7.398250123473134
 20
12.0764055176695
 30
0.0
 40
0.375
100
AcDbArc
 50
33.22153713052591
 51
69.54819648667104
  0
ARC
  5
210
330
2
100
AcDbEntity
  8
AM_VIS
100
AcDbCircle
 10
7.898250123473141
 20
10.5764055176695
 30
0.0
 40
0.2025
100
AcDbArc
 50
179.9999999999992
 51
359.9999999999962
  0
ARC
  5
215
330
2
100
AcDbEntity
  8
AM_VIS
100
AcDbCircle
 10
3.398250123473139
 20
10.5764055176695
 30
0.0
 40
0.2025
100
AcDbArc
 50
179.9999999999992
 51
359.9999999999962
  0
LINE
  5
218
330
2
100
AcDbEntity
  8
AM_VIS
100
AcDbLine
 10
3.148250123473139
 20
10.20140551766951
 30
0.0
 11
3.148250123473139
 21
10.57640551766949
 31
0.0
  0
LINE
  5
21C
330
2
100
AcDbEntity
  8
AM_VIS
100
AcDbLine
 10
8.14825012347314
 20
10.57640551766949
 30
0.0
 11
8.14825012347314
 21
10.2014055176695
 31
0.0
  0
LINE
  5
21D
330
2
100
AcDbEntity
  8
AM_VIS
100
AcDbLine
 10
8.148250123473141
 20
10.2014055176695
 30
0.0
 11
3.14825012347314
 21
10.2014055176695
 31
0.0
  0
ARC
  5
21F
330
2
100
AcDbEntity
  8
AM_VIS
100
AcDbCircle
 10
6.523250123473133
 20
10.5764055176695
 30
0.0
 40
0.2184999999999997
100
AcDbArc
 50
180.000000000002
 51
359.9999999999972
  0
ARC
  5
222
330
2
100
AcDbEntity
  8
AM_VIS
100
AcDbCircle
 10
6.523250123473133
 20
10.5764055176695
 30
0.0
 40
0.25
100
AcDbArc
 50
180.0000000000016
 51
359.9999999999975
  0
LINE
  5
23A
330
2
100
AcDbEntity
  8
AM_VIS
100
AcDbLine
 10
3.710250123473141
 20
10.3264055076695
 30
0.0
 11
3.710250123473141
 21
10.57640551766949
 31
0.0
  0
LINE
  5
23D
330
2
100
AcDbEntity
  8
AM_VIS
100
AcDbLine
 10
4.960250123473137
 20
10.57640551766949
 30
0.0
 11
4.960250123473137
 21
10.3264055076695
 31
0.0
  0
LINE
  5
23E
330
2
100
AcDbEntity
  8
AM_VIS
100
AcDbLine
 10
4.960250123473137
 20
10.3264055076695
 30
0.0
 11
3.710250123473141
 21
10.3264055076695
 31
0.0
  0
ARC
  5
244
330
2
100
AcDbEntity
  8
AM_VIS
100
AcDbCircle
 10
7.898250123473136
 20
10.5764055176695
 30
0.0
 40
0.187500000012
100
AcDbArc
 50
180.0000000000021
 51
0.0
  0
ARC
  5
246
330
2
100
AcDbEntity
  8
AM_VIS
100
AcDbCircle
 10
3.398250123473144
 20
10.5764055176695
 30
0.0
 40
0.187500000012
100
AcDbArc
 50
180.0000000000021
 51
0.0
  0
LINE
  5
249
330
2
100
AcDbEntity
  8
AM_VIS
100
AcDbLine
 10
7.844123535733146
 20
10.4826555176635
 30
0.0
 11
7.789996947993156
 21
10.5764055176695
 31
0.0
  0
LINE
  5
24A
330
2
100
AcDbEntity
  8
AM_VIS
100
AcDbLine
 10
3.344123535733153
 20
10.4826555176635
 30
0.0
 11
3.289996947993163
 21
10.5764055176695
 31
0.0
  0
LINE
  5
251
330
2
100
AcDbEntity
  8
AM_VIS
100
AcDbLine
 10
8.00650329895312
 20
10.5764055176695
 30
0.0
 11
7.952376711213131
 21
10.4826555176635
 31
0.0
  0
LINE
  5
252
330
2
100
AcDbEntity
  8
AM_VIS
100
AcDbLine
 10
3.506503298953126
 20
10.5764055176695
 30
0.0
 11
3.452376711213137
 21
10.4826555176635
 31
0.0
  0
LINE
  5
253
330
2
100
AcDbEntity
  8
AM_VIS
100
AcDbLine
 10
7.952376711213128
 20
10.4826555176635
 30
0.0
 11
7.844123535733148
 21
10.4826555176635
 31
0.0
  0
LINE
  5
254
330
2
100
AcDbEntity
  8
AM_VIS
100
AcDbLine
 10
3.452376711213134
 20
10.4826555176635
 30
0.0
 11
3.344123535733154
 21
10.4826555176635
 31
0.0
  0
ARC
  5
267
330
2
100
AcDbEntity
  8
AM_VIS
100
AcDbCircle
 10
4.773250123473134
 20
10.5764055176695
 30
0.0
 40
0.25
100
AcDbArc
 50
318.4174274553683
 51
359.9999999999975
  0
SPLINE
  5
278
330
2
100
AcDbEntity
  8
AM_VIS
100
AcDbSpline
210
0.0
220
0.0
230
1.0
 70
     8
 71
     3
 72
    12
 73
     8
 74
     0
 42
0.0000000001
 43
0.0000000001
 40
0.4217407258248198
 40
0.4217407258248198
 40
0.4217407258248198
 40
0.4217407258248198
 40
0.428569718413665
 40
0.428569718413665
 40
0.4787530642830522
 40
0.4787530642830522
 40
0.480830512687666
 40
0.480830512687666
 40
0.480830512687666
 40
0.480830512687666
 10
7.483256801918857
 20
10.57640551767593
 30
0.0
 10
7.483256801918921
 20
10.57425495238974
 30
0.0
 10
7.483222105877457
 20
10.5720374008617
 30
0.0
 10
7.482674164772012
 20
10.55431756358998
 30
0.0
 10
7.480254494871887
 20
10.5368127939942
 30
0.0
 10
7.475259213181308
 20
10.51899849055036
 30
0.0
 10
7.475056801722088
 20
10.51829095721847
 30
0.0
 10
7.474850578406487
 20
10.51758418410619
 30
0.0
  0
LINE
  5
279
330
2
100
AcDbEntity
  8
AM_VIS
100
AcDbLine
 10
7.474169940747736
 20
10.57640551766949
 30
0.0
 11
7.483256801918582
 21
10.57640551766949
 31
0.0
  0
LINE
  5
27A
330
2
100
AcDbEntity
  8
AM_VIS
100
AcDbLine
 10
7.378253644674019
 20
10.39453836007647
 30
0.0
 11
7.373711527066904
 21
10.40240551766952
 31
0.0
  0
SPLINE
  5
27B
330
2
100
AcDbEntity
  8
AM_VIS
100
AcDbSpline
210
0.0
220
0.0
230
1.0
 70
     8
 71
     3
 72
    12
 73
     8
 74
     0
 42
0.0000000001
 43
0.0000000001
 40
0.0481058974647739
 40
0.0481058974647739
 40
0.0481058974647739
 40
0.0481058974647739
 40
0.0501833458693873
 40
0.0501833458693873
 40
0.1003666917387745
 40
0.1003666917387745
 40
0.1072005649096604
 40
0.1072005649096604
 40
0.1072005649096604
 40
0.1072005649096604
 10
7.424995126563588
 20
10.43123155018721
 30
0.0
 10
7.424486157196538
 20
10.43069956666158
 30
0.0
 10
7.423974623518381
 20
10.43017050417882
 30
0.0
 10
7.411044685853076
 20
10.41693725218513
 30
0.0
 10
7.397094995504941
 20
10.40608930766931
 30
0.0
 10
7.382021889498981
 20
10.39675398975506
 30
0.0
 10
7.380117356700425
 20
10.39561433157727
 30
0.0
 10
7.378253644668584
 20
10.39453836007301
 30
0.0
  0
LINE
  5
27C
330
2
100
AcDbEntity
  8
AM_VIS
100
AcDbLine
 10
7.474169940747725
 20
10.57640551766946
 30
0.0
 11
7.3737115270669
 21
10.40240551766952
 31
0.0
  0
SPLINE
  5
27D
330
2
100
AcDbEntity
  8
AM_VIS
100
AcDbSpline
210
0.0
220
0.0
230
1.0
 70
     8
 71
     3
 72
    12
 73
     8
 74
     0
 42
0.0000000001
 43
0.0000000001
 40
0.4217358452427773
 40
0.4217358452427773
 40
0.4217358452427773
 40
0.4217358452427773
 40
0.4285697184136623
 40
0.4285697184136623
 40
0.4787530642830494
 40
0.4787530642830494
 40
0.4808305126876654
 40
0.4808305126876654
 40
0.4808305126876654
 40
0.4808305126876654
 10
7.378253644668584
 20
10.75827267526596
 30
0.0
 10
7.380117356700429
 20
10.7571967037617
 30
0.0
 10
7.382021889498977
 20
10.75605704558391
 30
0.0
 10
7.397094995504938
 20
10.74672172766966
 30
0.0
 10
7.411044685853076
 20
10.73587378315385
 30
0.0
 10
7.423974623518384
 20
10.72264053116015
 30
0.0
 10
7.424486157196538
 20
10.72211146867739
 30
0.0
 10
7.424995126563588
 20
10.72157948515176
 30
0.0
  0
LINE
  5
27E
330
2
100
AcDbEntity
  8
AM_VIS
100
AcDbLine
 10
7.373711527066903
 20
10.75040551766945
 30
0.0
 11
7.37825364467402
 21
10.75827267526251
 31
0.0
  0
SPLINE
  5
27F
330
2
100
AcDbEntity
  8
AM_VIS
100
AcDbSpline
210
0.0
220
0.0
230
1.0
 70
     8
 71
     3
 72
    10
 73
     6
 74
     0
 42
0.0000000001
 43
0.0000000001
 40
0.0916094854513507
 40
0.0916094854513507
 40
0.0916094854513507
 40
0.0916094854513507
 40
0.1003666917387748
 40
0.1003666917387748
 40
0.1071956843171176
 40
0.1071956843171176
 40
0.1071956843171176
 40
0.1071956843171176
 10
7.482732451771052
 20
10.59123630051252
 30
0.0
 10
7.482929147312588
 20
10.58839782123645
 30
0.0
 10
7.483072308144672
 20
10.58561793511887
 30
0.0
 10
7.483222105877357
 20
10.58077363448054
 30
0.0
 10
7.48325480179968
 20
10.57855660986436
 30
0.0
 10
7.483256801920615
 20
10.57640551767352
 30
0.0
  0
SPLINE
  5
280
330
2
100
AcDbEntity
  8
AM_VIS
100
AcDbSpline
210
0.0
220
0.0
230
1.0
 70
     8
 71
     3
 72
    10
 73
     6
 74
     0
 42
0.0000000001
 43
0.0000000001
 40
0.0481058974647697
 40
0.0481058974647697
 40
0.0481058974647697
 40
0.0481058974647697
 40
0.0501833458693874
 40
0.0501833458693874
 40
0.0916094854513507
 40
0.0916094854513507
 40
0.0916094854513507
 40
0.0916094854513507
 10
7.474850578406487
 20
10.63522685123278
 30
0.0
 10
7.475056567458923
 20
10.63452000864075
 30
0.0
 10
7.475259213181309
 20
10.63381254478862
 30
0.0
 10
7.479417448423671
 20
10.61898333815188
 30
0.0
 10
7.48175729447087
 20
10.60459064609578
 30
0.0
 10
7.482732451771052
 20
10.59123630051252
 30
0.0
  0
LINE
  5
281
330
2
100
AcDbEntity
  8
AM_VIS
100
AcDbLine
 10
7.3737115270669
 20
10.75040551766945
 30
0.0
 11
7.474169940747765
 21
10.57640551766944
 31
0.0
  0
ARC
  5
282
330
2
100
AcDbEntity
  8
AM_VIS
100
AcDbCircle
 10
7.273256801920615
 20
10.57640551766949
 30
0.0
 40
0.21
100
AcDbArc
 50
316.2665312553861
 51
343.733732087298
  0
SPLINE
  5
283
330
2
100
AcDbEntity
  8
AM_VIS
100
AcDbSpline
210
0.0
220
0.0
230
1.0
 70
     8
 71
     3
 72
    10
 73
     6
 74
     0
 42
0.0000000001
 43
0.0000000001
 40
0.4372965095329724
 40
0.4372965095329724
 40
0.4372965095329724
 40
0.4372965095329724
 40
0.4787268005813996
 40
0.4787268005813996
 40
0.4808173816459805
 40
0.4808173816459805
 40
0.4808173816459805
 40
0.4808173816459805
 10
7.365151660029138
 20
10.38757931436811
 30
0.0
 10
7.353098084688677
 20
10.38174618575622
 30
0.0
 10
7.339462346669563
 20
10.37657570855081
 30
0.0
 10
7.324534754334908
 20
10.37276092683481
 30
0.0
 10
7.323816223302001
 20
10.37258159875565
 30
0.0
 10
7.323096545098257
 20
10.37240551766952
 30
0.0
  0
SPLINE
  5
284
330
2
100
AcDbEntity
  8
AM_VIS
100
AcDbSpline
210
0.0
220
0.0
230
1.0
 70
     8
 71
     3
 72
    10
 73
     6
 74
     0
 42
0.0000000001
 43
0.0000000001
 40
0.4217148357922298
 40
0.4217148357922298
 40
0.4217148357922298
 40
0.4217148357922298
 40
0.4285458330708223
 40
0.4285458330708223
 40
0.4372965095329724
 40
0.4372965095329724
 40
0.4372965095329724
 40
0.4372965095329724
 10
7.37825364467154
 20
10.39453836007269
 30
0.0
 10
7.376389247907341
 20
10.39346430266843
 30
0.0
 10
7.374452303398586
 20
10.39238382782782
 30
0.0
 10
7.370183347727222
 20
10.39009220956633
 30
0.0
 10
7.367706211510669
 20
10.38882724951208
 30
0.0
 10
7.365151660029139
 20
10.38757931436811
 30
0.0
  0
LINE
  5
285
330
2
100
AcDbEntity
  8
AM_VIS
100
AcDbLine
 10
7.168254950324556
 20
10.39454125190915
 30
0.0
 11
7.172795398326859
 21
10.40240551766951
 31
0.0
  0
SPLINE
  5
286
330
2
100
AcDbEntity
  8
AM_VIS
100
AcDbSpline
210
0.0
220
0.0
230
1.0
 70
     8
 71
     3
 72
    12
 73
     8
 74
     0
 42
0.0000000001
 43
0.0000000001
 40
0.0480903864459962
 40
0.0480903864459962
 40
0.0480903864459962
 40
0.0480903864459962
 40
0.0501809675105773
 40
0.0501809675105773
 40
0.1003619350211546
 40
0.1003619350211546
 40
0.1071990546072009
 40
0.1071990546072009
 40
0.1071990546072009
 40
0.1071990546072009
 10
7.223417058743001
 20
10.37240551766951
 30
0.0
 10
7.222697322879978
 20
10.37258135811348
 30
0.0
 10
7.221978849506351
 20
10.3727609268348
 30
0.0
 10
7.204049788576574
 20
10.37734274098718
 30
0.0
 10
7.187681031318311
 20
10.3839989994834
 30
0.0
 10
7.172059623096609
 20
10.39238472824401
 30
0.0
 10
7.170119428216841
 20
10.3934647697855
 30
0.0
 10
7.168254950318859
 20
10.39454125191212
 30
0.0
  0
LINE
  5
287
330
2
100
AcDbEntity
  8
AM_VIS
100
AcDbLine
 10
7.373711527066893
 20
10.40240551766952
 30
0.0
 11
7.172795398326863
 21
10.40240551766951
 31
0.0
  0
ARC
  5
288
330
2
100
AcDbEntity
  8
AM_VIS
100
AcDbCircle
 10
7.273256801920615
 20
10.57640551766949
 30
0.0
 40
0.21
100
AcDbArc
 50
256.2708673245577
 51
283.7291326754503
  0
SPLINE
  5
289
330
2
100
AcDbEntity
  8
AM_VIS
100
AcDbSpline
210
0.0
220
0.0
230
1.0
 70
     8
 71
     3
 72
    10
 73
     6
 74
     0
 42
0.0000000001
 43
0.0000000001
 40
0.4372752514382368
 40
0.4372752514382368
 40
0.4372752514382368
 40
0.4372752514382368
 40
0.4787139840974848
 40
0.4787139840974848
 40
0.4808109752564034
 40
0.4808109752564034
 40
0.4808109752564034
 40
0.4808109752564034
 10
7.155681294266993
 20
10.40240551766951
 30
0.0
 10
7.144600818462867
 20
10.40992852533813
 30
0.0
 10
7.133302738194962
 20
10.41915388865352
 30
0.0
 10
7.122531648240742
 20
10.43017802643272
 30
0.0
 10
7.122015514276605
 20
10.43071227602851
 30
0.0
 10
7.121501632787988
 20
10.43124915838224
 30
0.0
  0
SPLINE
  5
28A
330
2
100
AcDbEntity
  8
AM_VIS
100
AcDbSpline
210
0.0
220
0.0
230
1.0
 70
     8
 71
     3
 72
    10
 73
     6
 74
     0
 42
0.0000000001
 43
0.0000000001
 40
0.4216984608841871
 40
0.4216984608841871
 40
0.4216984608841871
 40
0.4216984608841871
 40
0.4285341772469455
 40
0.4285341772469455
 40
0.4372752514382368
 40
0.4372752514382368
 40
0.4372752514382368
 40
0.4372752514382368
 10
7.16825495032006
 20
10.3945412519094
 30
0.0
 10
7.166391393439463
 20
10.39561951210739
 30
0.0
 10
7.164485844034367
 20
10.39675753756368
 30
0.0
 10
7.160368116471801
 20
10.39930799529649
 30
0.0
 10
7.158036675185925
 20
10.40081905632293
 30
0.0
 10
7.155681294266993
 20
10.40240551766951
 30
0.0
  0
LINE
  5
28B
330
2
100
AcDbEntity
  8
AM_VIS
100
AcDbLine
 10
7.063256801922646
 20
10.57640551766949
 30
0.0
 11
7.072336984646049
 21
10.57640551766949
 31
0.0
  0
SPLINE
  5
28C
330
2
100
AcDbEntity
  8
AM_VIS
100
AcDbSpline
210
0.0
220
0.0
230
1.0
 70
     8
 71
     3
 72
    12
 73
     8
 74
     0
 42
0.0000000001
 43
0.0000000001
 40
0.0480828156916213
 40
0.0480828156916213
 40
0.0480828156916213
 40
0.0480828156916213
 40
0.0501798068505394
 40
0.0501798068505394
 40
0.1003596137010788
 40
0.1003596137010788
 40
0.1071965716182484
 40
0.1071965716182484
 40
0.1071965716182484
 40
0.1071965716182484
 10
7.071669852226593
 20
10.5175607922214
 30
0.0
 10
7.071461603805092
 20
10.51827419794723
 30
0.0
 10
7.071257239035348
 20
10.51898837964101
 30
0.0
 10
7.066260111505213
 20
10.53680809589832
 30
0.0
 10
7.063840174438412
 20
10.55431156322231
 30
0.0
 10
7.063291576417954
 20
10.5720324459171
 30
0.0
 10
7.063256801922301
 20
10.57425265903005
 30
0.0
 10
7.063256801922372
 20
10.5764055176759
 30
0.0
  0
LINE
  5
28D
330
2
100
AcDbEntity
  8
AM_VIS
100
AcDbLine
 10
7.172795398326861
 20
10.40240551766951
 30
0.0
 11
7.072336984646061
 21
10.57640551766947
 31
0.0
  0
ARC
  5
28E
330
2
100
AcDbEntity
  8
AM_VIS
100
AcDbCircle
 10
7.273256801920615
 20
10.57640551766949
 30
0.0
 40
0.21
100
AcDbArc
 50
196.2729163270952
 51
223.726820330203
  0
SPLINE
  5
28F
330
2
100
AcDbEntity
  8
AM_VIS
100
AcDbSpline
210
0.0
220
0.0
230
1.0
 70
     8
 71
     3
 72
    10
 73
     6
 74
     0
 42
0.0000000001
 43
0.0000000001
 40
0.4372732554684415
 40
0.4372732554684415
 40
0.4372732554684415
 40
0.4372732554684415
 40
0.478713984097484
 40
0.478713984097484
 40
0.4808109752563965
 40
0.4808109752563965
 40
0.4808109752563965
 40
0.4808109752563965
 10
7.063780422784649
 20
10.59122599620714
 30
0.0
 10
7.064755150719692
 20
10.60458402628791
 30
0.0
 10
7.067095478054648
 20
10.61898184978304
 30
0.0
 10
7.071257239035348
 20
10.63382265569796
 30
0.0
 10
7.071461842493008
 20
10.63453676656096
 30
0.0
 10
7.07166985222659
 20
10.63525024311756
 30
0.0
  0
SPLINE
  5
290
330
2
100
AcDbEntity
  8
AM_VIS
100
AcDbSpline
210
0.0
220
0.0
230
1.0
 70
     8
 71
     3
 72
    10
 73
     6
 74
     0
 42
0.0000000001
 43
0.0000000001
 40
-0.1071965716077822
 40
-0.1071965716077822
 40
-0.1071965716077822
 40
-0.1071965716077822
 40
-0.1003596137010788
 40
-0.1003596137010788
 40
-0.0916205354795819
 40
-0.0916205354795819
 40
-0.0916205354795819
 40
-0.0916205354795819
 10
7.063256801920615
 20
10.57640551767351
 30
0.0
 10
7.063258802407098
 20
10.57855890207036
 30
0.0
 10
7.063291576418056
 20
10.58077858942513
 30
0.0
 10
7.063441444314302
 20
10.58561964117898
 30
0.0
 10
7.063584282108649
 20
10.58839361294921
 30
0.0
 10
7.063780422784649
 20
10.59122599620714
 30
0.0
  0
LINE
  5
291
330
2
100
AcDbEntity
  8
AM_VIS
100
AcDbLine
 10
7.168254950324561
 20
10.75826978342982
 30
0.0
 11
7.172795398326862
 21
10.75040551766947
 31
0.0
  0
SPLINE
  5
292
330
2
100
AcDbEntity
  8
AM_VIS
100
AcDbSpline
210
0.0
220
0.0
230
1.0
 70
     8
 71
     3
 72
    12
 73
     8
 74
     0
 42
0.0000000001
 43
0.0000000001
 40
0.048082815691621
 40
0.048082815691621
 40
0.048082815691621
 40
0.048082815691621
 40
0.0501798068505394
 40
0.0501798068505394
 40
0.1003596137010787
 40
0.1003596137010787
 40
0.1071953300743073
 40
0.1071953300743073
 40
0.1071953300743073
 40
0.1071953300743073
 10
7.121501632787991
 20
10.72156187695673
 30
0.0
 10
7.122015333590601
 20
10.72209893060404
 30
0.0
 10
7.122531648240746
 20
10.72263300890626
 30
0.0
 10
7.135465350600446
 20
10.73587056586794
 30
0.0
 10
7.149413779566726
 20
10.74671809061519
 30
0.0
 10
7.164485844037136
 20
10.75605349777701
 30
0.0
 10
7.16639084869878
 20
10.75719351854964
 30
0.0
 10
7.168254950329982
 20
10.75826978343327
 30
0.0
  0
LINE
  5
293
330
2
100
AcDbEntity
  8
AM_VIS
100
AcDbLine
 10
7.072336984646024
 20
10.57640551766944
 30
0.0
 11
7.172795398326863
 21
10.75040551766947
 31
0.0
  0
ARC
  5
294
330
2
100
AcDbEntity
  8
AM_VIS
100
AcDbCircle
 10
7.273256801920615
 20
10.57640551766949
 30
0.0
 40
0.21
100
AcDbArc
 50
136.2731796697973
 51
163.7270836729074
  0
SPLINE
  5
295
330
2
100
AcDbEntity
  8
AM_VIS
100
AcDbSpline
210
0.0
220
0.0
230
1.0
 70
     8
 71
     3
 72
    10
 73
     6
 74
     0
 42
0.0000000001
 43
0.0000000001
 40
0.4372858816561424
 40
0.4372858816561424
 40
0.4372858816561424
 40
0.4372858816561424
 40
0.4787268005813997
 40
0.4787268005813997
 40
0.4808173816459815
 40
0.4808173816459815
 40
0.4808173816459815
 40
0.4808173816459815
 10
7.181352655399818
 20
10.76522720035525
 30
0.0
 10
7.19340852339383
 20
10.77106219677529
 30
0.0
 10
7.207047611826258
 20
10.77623439521148
 30
0.0
 10
7.221978849506355
 20
10.78005010850417
 30
0.0
 10
7.222697380539261
 20
10.78022943658333
 30
0.0
 10
7.223417058743005
 20
10.78040551766946
 30
0.0
  0
SPLINE
  5
296
330
2
100
AcDbEntity
  8
AM_VIS
100
AcDbSpline
210
0.0
220
0.0
230
1.0
 70
     8
 71
     3
 72
    10
 73
     6
 74
     0
 42
0.0000000001
 43
0.0000000001
 40
0.4217087134952449
 40
0.4217087134952449
 40
0.4217087134952449
 40
0.4217087134952449
 40
0.4285458330708224
 40
0.4285458330708224
 40
0.4372858816561424
 40
0.4372858816561424
 40
0.4372858816561424
 40
0.4372858816561424
 10
7.168254950327024
 20
10.7582697834336
 30
0.0
 10
7.170120883899437
 20
10.75934479585354
 30
0.0
 10
7.172059623099479
 20
10.7604263070965
 30
0.0
 10
7.176327344364261
 20
10.76271726271615
 30
0.0
 10
7.178801375382207
 20
10.76398071315435
 30
0.0
 10
7.181352655399817
 20
10.76522720035525
 30
0.0
  0
SPLINE
  5
297
330
2
100
AcDbEntity
  8
AM_VIS
100
AcDbSpline
210
0.0
220
0.0
230
1.0
 70
     8
 71
     3
 72
    10
 73
     6
 74
     0
 42
0.0000000001
 43
0.0000000001
 40
0.0916112585590037
 40
0.0916112585590037
 40
0.0916112585590037
 40
0.0916112585590037
 40
0.1003619350211546
 40
0.1003619350211546
 40
0.1071929322997449
 40
0.1071929322997449
 40
0.1071929322997449
 40
0.1071929322997449
 10
7.365151660029142
 20
10.76523172097087
 30
0.0
 10
7.367706211510672
 20
10.76398378582689
 30
0.0
 10
7.370183347727224
 20
10.76271882577265
 30
0.0
 10
7.374452303398589
 20
10.76042720751115
 30
0.0
 10
7.376389247907341
 20
10.75934673267054
 30
0.0
 10
7.378253644671541
 20
10.75827267526628
 30
0.0
  0
SPLINE
  5
298
330
2
100
AcDbEntity
  8
AM_VIS
100
AcDbSpline
210
0.0
220
0.0
230
1.0
 70
     8
 71
     3
 72
    10
 73
     6
 74
     0
 42
0.0000000001
 43
0.0000000001
 40
0.0480903864459959
 40
0.0480903864459959
 40
0.0480903864459959
 40
0.0480903864459959
 40
0.0501809675105773
 40
0.0501809675105773
 40
0.0916112585590037
 40
0.0916112585590037
 40
0.0916112585590037
 40
0.0916112585590037
 10
7.323096545098263
 20
10.78040551766945
 30
0.0
 10
7.323816223302005
 20
10.78022943658332
 30
0.0
 10
7.324534754334911
 20
10.78005010850416
 30
0.0
 10
7.339462346669567
 20
10.77623532678817
 30
0.0
 10
7.35309808468868
 20
10.77106484958275
 30
0.0
 10
7.365151660029142
 20
10.76523172097087
 30
0.0
  0
LINE
  5
299
330
2
100
AcDbEntity
  8
AM_VIS
100
AcDbLine
 10
7.17279539832686
 20
10.75040551766946
 30
0.0
 11
7.373711527066896
 21
10.75040551766945
 31
0.0
  0
ARC
  5
29A
330
2
100
AcDbEntity
  8
AM_VIS
100
AcDbCircle
 10
7.273256801920615
 20
10.57640551766949
 30
0.0
 40
0.21
100
AcDbArc
 50
76.27086732454869
 51
103.7291326754413
  0
ARC
  5
29B
330
2
100
AcDbEntity
  8
AM_VIS
100
AcDbCircle
 10
7.273256801920615
 20
10.57640551766949
 30
0.0
 40
0.21
100
AcDbArc
 50
16.26626791270093
 51
43.7334687446125
  0
CIRCLE
  5
29F
330
2
100
AcDbEntity
  8
AM_VIS
100
AcDbCircle
 10
7.273256801920619
 20
10.57640551766952
 30
0.0
 40
0.0625
  0
LINE
  5
2E9
330
2
100
AcDbEntity
  8
AM_VIS
100
AcDbLine
 10
8.398250123473143
 20
-4.408946568705747
 30
0.0
 11
8.398250123473143
 21
-4.689946568705747
 31
0.0
  0
LINE
  5
2EB
330
2
100
AcDbEntity
  8
AM_VIS
100
AcDbLine
 10
8.398250123473143
 20
-6.408708619748296
 30
0.0
 11
8.398250123473143
 21
-6.689708619748295
 31
0.0
  0
LINE
  5
2EE
330
2
100
AcDbEntity
  8
AM_VIS
100
AcDbLine
 10
2.898250123473143
 20
-6.689708619748296
 30
0.0
 11
2.898250123473143
 21
-6.408708619748296
 31
0.0
  0
LINE
  5
2F0
330
2
100
AcDbEntity
  8
AM_VIS
100
AcDbLine
 10
2.898250123473143
 20
-4.689946568705746
 30
0.0
 11
2.898250123473143
 21
-4.408946568705747
 31
0.0
  0
CIRCLE
  5
2F8
330
2
100
AcDbEntity
  8
AM_VIS
100
AcDbCircle
 10
3.398250123473134
 20
-4.049208619748295
 30
0.0
 40
0.14
  0
CIRCLE
  5
2F9
330
2
100
AcDbEntity
  8
AM_VIS
100
AcDbCircle
 10
7.898250123473133
 20
-4.049208619748295
 30
0.0
 40
0.14
  0
CIRCLE
  5
2FA
330
2
100
AcDbEntity
  8
AM_VIS
100
AcDbCircle
 10
7.398250123473135
 20
-5.549208619748296
 30
0.0
 40
0.375
  0
CIRCLE
  5
2FB
330
2
100
AcDbEntity
  8
AM_VIS
100
AcDbCircle
 10
5.648250123473136
 20
-5.549208619748296
 30
0.0
 40
0.1565
  0
CIRCLE
  5
2FC
330
2
100
AcDbEntity
  8
AM_VIS
100
AcDbCircle
 10
3.023250123473137
 20
-5.549208619748296
 30
0.0
 40
0.125
  0
CIRCLE
  5
2FD
330
2
100
AcDbEntity
  8
AM_VIS
100
AcDbCircle
 10
3.898250123473136
 20
-5.549208619748296
 30
0.0
 40
0.375
  0
CIRCLE
  5
2FE
330
2
100
AcDbEntity
  8
AM_VIS
100
AcDbCircle
 10
8.273250123473136
 20
-5.549208619748296
 30
0.0
 40
0.125
  0
LINE
  5
2FF
330
2
100
AcDbEntity
  8
AM_VIS
100
AcDbLine
 10
8.648250123473136
 20
-6.689708619748296
 30
0.0
 11
8.648250123473136
 21
-7.049208619748296
 31
0.0
  0
LINE
  5
300
330
2
100
AcDbEntity
  8
AM_VIS
100
AcDbLine
 10
8.648250123473136
 20
-7.049208619748296
 30
0.0
 11
2.648250123473137
 21
-7.049208619748296
 31
0.0
  0
LINE
  5
301
330
2
100
AcDbEntity
  8
AM_VIS
100
AcDbLine
 10
2.648250123473136
 20
-7.049208619748296
 30
0.0
 11
2.648250123473136
 21
-6.689708619748296
 31
0.0
  0
LINE
  5
302
330
2
100
AcDbEntity
  8
AM_VIS
100
AcDbLine
 10
2.648250123473136
 20
-6.689708619748297
 30
0.0
 11
3.023250123473135
 21
-6.689708619748296
 31
0.0
  0
ARC
  5
303
330
2
100
AcDbEntity
  8
AM_VIS
100
AcDbCircle
 10
3.023250123473136
 20
-6.549208619748296
 30
0.0
 40
0.1405000000000001
100
AcDbArc
 50
269.9999999999996
 51
90.0
  0
LINE
  5
304
330
2
100
AcDbEntity
  8
AM_VIS
100
AcDbLine
 10
3.023250123473137
 20
-6.408708619748296
 30
0.0
 11
2.648250123473137
 21
-6.408708619748296
 31
0.0
  0
LINE
  5
305
330
2
100
AcDbEntity
  8
AM_VIS
100
AcDbLine
 10
2.648250123473137
 20
-6.408708619748296
 30
0.0
 11
2.648250123473137
 21
-4.689946568705748
 31
0.0
  0
LINE
  5
306
330
2
100
AcDbEntity
  8
AM_VIS
100
AcDbLine
 10
2.648250123473137
 20
-4.689946568705748
 30
0.0
 11
3.023250123473136
 21
-4.689946568705747
 31
0.0
  0
ARC
  5
307
330
2
100
AcDbEntity
  8
AM_VIS
100
AcDbCircle
 10
3.023250123473137
 20
-4.549446568705747
 30
0.0
 40
0.1405000000000001
100
AcDbArc
 50
269.9999999999996
 51
90.0
  0
LINE
  5
308
330
2
100
AcDbEntity
  8
AM_VIS
100
AcDbLine
 10
3.023250123473137
 20
-4.408946568705747
 30
0.0
 11
2.648250123473137
 21
-4.408946568705747
 31
0.0
  0
LINE
  5
309
330
2
100
AcDbEntity
  8
AM_VIS
100
AcDbLine
 10
2.648250123473137
 20
-4.408946568705747
 30
0.0
 11
2.648250123473137
 21
-3.549208619748295
 31
0.0
  0
LINE
  5
30A
330
2
100
AcDbEntity
  8
AM_VIS
100
AcDbLine
 10
2.648250123473137
 20
-3.549208619748295
 30
0.0
 11
8.648250123473136
 21
-3.549208619748295
 31
0.0
  0
LINE
  5
30B
330
2
100
AcDbEntity
  8
AM_VIS
100
AcDbLine
 10
8.648250123473136
 20
-3.549208619748295
 30
0.0
 11
8.648250123473136
 21
-4.408946568705747
 31
0.0
  0
LINE
  5
30C
330
2
100
AcDbEntity
  8
AM_VIS
100
AcDbLine
 10
8.648250123473136
 20
-4.408946568705746
 30
0.0
 11
8.273250123473136
 21
-4.408946568705747
 31
0.0
  0
ARC
  5
30D
330
2
100
AcDbEntity
  8
AM_VIS
100
AcDbCircle
 10
8.273250123473136
 20
-4.549446568705747
 30
0.0
 40
0.1404999999999998
100
AcDbArc
 50
90.0
 51
270.0
  0
LINE
  5
30E
330
2
100
AcDbEntity
  8
AM_VIS
100
AcDbLine
 10
8.273250123473136
 20
-4.689946568705748
 30
0.0
 11
8.648250123473136
 21
-4.689946568705748
 31
0.0
  0
LINE
  5
30F
330
2
100
AcDbEntity
  8
AM_VIS
100
AcDbLine
 10
8.648250123473136
 20
-4.689946568705748
 30
0.0
 11
8.648250123473136
 21
-6.408708619748296
 31
0.0
  0
LINE
  5
310
330
2
100
AcDbEntity
  8
AM_VIS
100
AcDbLine
 10
8.648250123473136
 20
-6.408708619748295
 30
0.0
 11
8.273250123473136
 21
-6.408708619748296
 31
0.0
  0
ARC
  5
311
330
2
100
AcDbEntity
  8
AM_VIS
100
AcDbCircle
 10
8.273250123473136
 20
-6.549208619748296
 30
0.0
 40
0.1404999999999998
100
AcDbArc
 50
90.0
 51
270.0
  0
LINE
  5
312
330
2
100
AcDbEntity
  8
AM_VIS
100
AcDbLine
 10
8.273250123473136
 20
-6.689708619748296
 30
0.0
 11
8.648250123473136
 21
-6.689708619748296
 31
0.0
  0
LINE
  5
31E
330
2
100
AcDbEntity
  8
AM_VIS
100
AcDbLine
 10
8.148250123473136
 20
-4.549208609748295
 30
0.0
 11
8.132750324983831
 21
-4.549208609748295
 31
0.0
  0
LINE
  5
320
330
2
100
AcDbEntity
  8
AM_VIS
100
AcDbLine
 10
3.163749921962439
 20
-4.549208609748295
 30
0.0
 11
3.148250123473136
 21
-4.549208609748295
 31
0.0
  0
LINE
  5
321
330
2
100
AcDbEntity
  8
AM_VIS
100
AcDbLine
 10
3.148250123473136
 20
-6.549208609748295
 30
0.0
 11
3.148250123473136
 21
-6.485058405407266
 31
0.0
  0
LINE
  5
323
330
2
100
AcDbEntity
  8
AM_VIS
100
AcDbLine
 10
3.148250123473136
 20
-4.613596783046777
 30
0.0
 11
3.148250123473136
 21
-4.549208609748295
 31
0.0
  0
LINE
  5
324
330
2
100
AcDbEntity
  8
AM_VIS
100
AcDbLine
 10
8.148250123473136
 20
-6.549208609748295
 30
0.0
 11
8.132750123473135
 21
-6.549208609748295
 31
0.0
  0
LINE
  5
326
330
2
100
AcDbEntity
  8
AM_VIS
100
AcDbLine
 10
3.163750123473136
 20
-6.549208609748295
 30
0.0
 11
3.148250123473135
 21
-6.549208609748295
 31
0.0
  0
LINE
  5
327
330
2
100
AcDbEntity
  8
AM_VIS
100
AcDbLine
 10
8.148250123473136
 20
-6.549208609748295
 30
0.0
 11
8.148250123473136
 21
-6.485058405407263
 31
0.0
  0
LINE
  5
329
330
2
100
AcDbEntity
  8
AM_VIS
100
AcDbLine
 10
8.148250123473136
 20
-4.613596783046779
 30
0.0
 11
8.148250123473136
 21
-4.549208609748295
 31
0.0
  0
CIRCLE
  5
32A
330
2
100
AcDbEntity
  8
AM_VIS
100
AcDbCircle
 10
5.648250123473136
 20
-5.549208619748296
 30
0.0
 40
0.15625
  0
CIRCLE
  5
32B
330
2
100
AcDbEntity
  8
AM_VIS
100
AcDbCircle
 10
3.898250123473136
 20
-5.549208619748296
 30
0.0
 40
0.375
  0
CIRCLE
  5
32C
330
2
100
AcDbEntity
  8
AM_VIS
100
AcDbCircle
 10
7.398250123473134
 20
-5.549208619748296
 30
0.0
 40
0.375
  0
CIRCLE
  5
33B
330
2
100
AcDbEntity
  8
AM_VIS
100
AcDbCircle
 10
3.398250123473137
 20
-4.049208619748295
 30
0.0
 40
0.125
  0
CIRCLE
  5
39D
330
2
100
AcDbEntity
  8
AM_VIS
100
AcDbCircle
 10
7.898250123473133
 20
-4.049208619748295
 30
0.0
 40
0.125
  0
LINE
  5
3F3
330
2
100
AcDbEntity
  8
AM_VIS
100
AcDbLine
 10
10.99165967629334
 20
7.855016935821311
 30
0.0
 11
10.99165967629334
 21
7.355016935821311
 31
0.0
  0
LINE
  5
3F4
330
2
100
AcDbEntity
  8
AM_VIS
100
AcDbLine
 10
10.99165967629334
 20
7.355016935821311
 30
0.0
 11
13.99165967629334
 21
7.355016935821311
 31
0.0
  0
LINE
  5
3F5
330
2
100
AcDbEntity
  8
AM_VIS
100
AcDbLine
 10
13.99165967629334
 20
7.855016935821311
 30
0.0
 11
13.99165967629334
 21
7.355016935821311
 31
0.0
  0
LINE
  5
3F6
330
2
100
AcDbEntity
  8
AM_VIS
100
AcDbLine
 10
13.99165967629334
 20
7.855016935821311
 30
0.0
 11
10.99165967629334
 21
7.855016935821311
 31
0.0
  0
LINE
  5
3F8
330
2
100
AcDbEntity
  8
AM_VIS
100
AcDbLine
 10
13.63215967629335
 20
-1.834987458587449
 30
0.0
 11
13.99165967629335
 21
-1.834987458587449
 31
0.0
  0
LINE
  5
3F9
330
2
100
AcDbEntity
  8
AM_VIS
100
AcDbLine
 10
13.99165967629335
 20
-1.084987458587449
 30
0.0
 11
13.99165967629335
 21
-1.834987458587449
 31
0.0
  0
LINE
  5
3FA
330
2
100
AcDbEntity
  8
AM_VIS
100
AcDbLine
 10
13.99165967629335
 20
-1.084987458587449
 30
0.0
 11
13.63215967629335
 21
-1.084987458587449
 31
0.0
  0
LINE
  5
3FB
330
2
100
AcDbEntity
  8
AM_VIS
100
AcDbLine
 10
13.63215967629335
 20
-1.084987458587449
 30
0.0
 11
13.63215967629335
 21
-1.834987458587449
 31
0.0
  0
LINE
  5
3FC
330
2
100
AcDbEntity
  8
AM_VIS
100
AcDbLine
 10
10.49165967629335
 20
-1.084987458587449
 30
0.0
 11
10.49165967629335
 21
-1.834987458587449
 31
0.0
  0
LINE
  5
3FD
330
2
100
AcDbEntity
  8
AM_VIS
100
AcDbLine
 10
10.49165967629335
 20
-1.834987458587449
 30
0.0
 11
11.3513976252508
 21
-1.834987458587449
 31
0.0
  0
LINE
  5
3FE
330
2
100
AcDbEntity
  8
AM_VIS
100
AcDbLine
 10
11.3513976252508
 20
-1.084987458587449
 30
0.0
 11
11.3513976252508
 21
-1.834987458587449
 31
0.0
  0
LINE
  5
3FF
330
2
100
AcDbEntity
  8
AM_VIS
100
AcDbLine
 10
11.3513976252508
 20
-1.084987458587449
 30
0.0
 11
10.49165967629335
 21
-1.084987458587449
 31
0.0
  0
LINE
  5
400
330
2
100
AcDbEntity
  8
AM_VIS
100
AcDbLine
 10
11.3513976252508
 20
-1.834987458587449
 30
0.0
 11
11.6323976252508
 21
-1.834987458587449
 31
0.0
  0
LINE
  5
401
330
2
100
AcDbEntity
  8
AM_VIS
100
AcDbLine
 10
11.6323976252508
 20
-1.084987458587449
 30
0.0
 11
11.3513976252508
 21
-1.084987458587449
 31
0.0
  0
LINE
  5
402
330
2
100
AcDbEntity
  8
AM_VIS
100
AcDbLine
 10
11.6323976252508
 20
-1.084987458587449
 30
0.0
 11
11.6323976252508
 21
-1.834987458587449
 31
0.0
  0
LINE
  5
403
330
2
100
AcDbEntity
  8
AM_VIS
100
AcDbLine
 10
11.6323976252508
 20
-1.834987458587449
 30
0.0
 11
13.35115967629335
 21
-1.834987458587449
 31
0.0
  0
LINE
  5
404
330
2
100
AcDbEntity
  8
AM_VIS
100
AcDbLine
 10
13.35115967629335
 20
-1.084987458587449
 30
0.0
 11
13.35115967629335
 21
-1.834987458587449
 31
0.0
  0
LINE
  5
405
330
2
100
AcDbEntity
  8
AM_VIS
100
AcDbLine
 10
13.35115967629335
 20
-1.084987458587449
 30
0.0
 11
11.6323976252508
 21
-1.084987458587449
 31
0.0
  0
LINE
  5
406
330
2
100
AcDbEntity
  8
AM_VIS
100
AcDbLine
 10
13.35115967629335
 20
-1.834987458587449
 30
0.0
 11
13.63215967629335
 21
-1.834987458587449
 31
0.0
  0
LINE
  5
407
330
2
100
AcDbEntity
  8
AM_VIS
100
AcDbLine
 10
13.63215967629335
 20
-1.084987458587449
 30
0.0
 11
13.35115967629335
 21
-1.084987458587449
 31
0.0
  0
LINE
  5
410
330
2
100
AcDbEntity
  8
AM_VIS
100
AcDbLine
 10
13.49165966629335
 20
-0.3953960002490797
 30
0.0
 11
11.49165966629335
 21
-0.3953960002490797
 31
0.0
  0
LINE
  5
411
330
2
100
AcDbEntity
  8
AM_VIS
100
AcDbLine
 10
13.49165966629335
 20
7.354603999750921
 30
0.0
 11
11.49165966629335
 21
7.354603999750921
 31
0.0
  0
LINE
  5
412
330
2
100
AcDbEntity
  8
AM_VIS
100
AcDbLine
 10
11.49165966629335
 20
7.354603999750921
 30
0.0
 11
11.49165966629335
 21
-0.3953960002490797
 31
0.0
  0
LINE
  5
413
330
2
100
AcDbEntity
  8
AM_VIS
100
AcDbLine
 10
13.49165966629335
 20
7.354603999750921
 30
0.0
 11
13.49165966629335
 21
-0.3953960002490797
 31
0.0
  0
LINE
  5
417
330
2
100
AcDbEntity
  8
AM_VIS
100
AcDbLine
 10
11.36665967629335
 20
5.165012541412552
 30
0.0
 11
11.36665967629335
 21
5.665012541412552
 31
0.0
  0
LINE
  5
418
330
2
100
AcDbEntity
  8
AM_VIS
100
AcDbLine
 10
11.36665967629335
 20
5.665012541412552
 30
0.0
 11
10.61665967629335
 21
5.665012541412552
 31
0.0
  0
LINE
  5
419
330
2
100
AcDbEntity
  8
AM_VIS
100
AcDbLine
 10
10.61665967629335
 20
5.165012541412552
 30
0.0
 11
10.61665967629335
 21
5.665012541412552
 31
0.0
  0
LINE
  5
41A
330
2
100
AcDbEntity
  8
AM_VIS
100
AcDbLine
 10
11.36665967629335
 20
5.165012541412552
 30
0.0
 11
10.61665967629335
 21
5.165012541412552
 31
0.0
  0
LINE
  5
41C
330
2
100
AcDbEntity
  8
AM_VIS
100
AcDbLine
 10
10.77315967629335
 20
6.756943760535156
 30
0.0
 11
11.21015967629335
 21
6.756943760535156
 31
0.0
  0
LINE
  5
41D
330
2
100
AcDbEntity
  8
AM_VIS
100
AcDbLine
 10
11.1656596762933
 20
6.496943760535151
 30
0.0
 11
11.24165967629335
 21
6.496943760535151
 31
0.0
  0
LINE
  5
41F
330
2
100
AcDbEntity
  8
AM_VIS
100
AcDbLine
 10
10.74165967629335
 20
6.496943760535151
 30
0.0
 11
10.81765967629337
 21
6.496943760535151
 31
0.0
  0
LINE
  5
422
330
2
100
AcDbEntity
  8
AM_VIS
100
AcDbLine
 10
11.36665967629335
 20
-0.0203960002490797
 30
0.0
 11
11.49165966629335
 21
-0.0203960002490797
 31
0.0
  0
LINE
  5
424
330
2
100
AcDbEntity
  8
AM_VIS
100
AcDbLine
 10
11.36665967629335
 20
0.9796039997509193
 30
0.0
 11
11.49165966629335
 21
0.9796039997509193
 31
0.0
  0
LINE
  5
45E
330
2
100
AcDbEntity
  8
AM_VIS
100
AcDbLine
 10
11.49165966629335
 20
6.97460399975092
 30
0.0
 11
10.74165966629334
 21
6.97460399975092
 31
0.0
  0
LINE
  5
45F
330
2
100
AcDbEntity
  8
AM_VIS
100
AcDbLine
 10
10.74165966629334
 20
6.496943760535151
 30
0.0
 11
10.74165966629334
 21
6.97460399975092
 31
0.0
  0
LINE
  5
460
330
2
100
AcDbEntity
  8
AM_VIS
100
AcDbLine
 10
11.49165966629335
 20
5.97460399975092
 30
0.0
 11
11.24165967629335
 21
5.97460399975092
 31
0.0
  0
LINE
  5
48D
330
2
100
AcDbEntity
  8
AM_VIS
100
AcDbLine
 10
11.2500773703338
 20
6.042227956681173
 30
0.0
 11
11.4200773703338
 21
6.042227956681173
 31
0.0
  0
LINE
  5
48E
330
2
100
AcDbEntity
  8
AM_VIS
100
AcDbLine
 10
11.42007737033381
 20
6.042227956681175
 30
0.0
 11
11.42007737033381
 21
6.16841597821628
 31
0.0
  0
LINE
  5
48F
330
2
100
AcDbEntity
  8
AM_VIS
100
AcDbLine
 10
11.2500773703338
 20
6.16841597821628
 30
0.0
 11
11.4200773703338
 21
6.16841597821628
 31
0.0
  0
LINE
  5
490
330
2
100
AcDbEntity
  8
AM_VIS
100
AcDbLine
 10
11.2500773703338
 20
6.16841597821628
 30
0.0
 11
11.2500773703338
 21
6.042227956681175
 31
0.0
  0
LINE
  5
491
330
2
100
AcDbEntity
  8
AM_VIS
100
AcDbLine
 10
11.42007737033381
 20
6.16841597821628
 30
0.0
 11
11.42007737033381
 21
6.420792021286466
 31
0.0
  0
LINE
  5
492
330
2
100
AcDbEntity
  8
AM_VIS
100
AcDbLine
 10
11.2500773703338
 20
6.420792021286466
 30
0.0
 11
11.4200773703338
 21
6.420792021286466
 31
0.0
  0
LINE
  5
493
330
2
100
AcDbEntity
  8
AM_VIS
100
AcDbLine
 10
11.2500773703338
 20
6.420792021286466
 30
0.0
 11
11.2500773703338
 21
6.16841597821628
 31
0.0
  0
LINE
  5
494
330
2
100
AcDbEntity
  8
AM_VIS
100
AcDbLine
 10
11.42007737033381
 20
6.420792021286468
 30
0.0
 11
11.42007737033381
 21
6.546980042821573
 31
0.0
  0
LINE
  5
495
330
2
100
AcDbEntity
  8
AM_VIS
100
AcDbLine
 10
11.2500773703338
 20
6.546980042821573
 30
0.0
 11
11.4200773703338
 21
6.546980042821573
 31
0.0
  0
LINE
  5
496
330
2
100
AcDbEntity
  8
AM_VIS
100
AcDbLine
 10
11.2500773703338
 20
6.546980042821573
 30
0.0
 11
11.2500773703338
 21
6.420792021286468
 31
0.0
  0
LINE
  5
498
330
2
100
AcDbEntity
  8
AM_VIS
100
AcDbLine
 10
11.36665967629335
 20
5.165012541412552
 30
0.0
 11
10.61665967629335
 21
5.165012541412552
 31
0.0
  0
LINE
  5
49B
330
2
100
AcDbEntity
  8
AM_VIS
100
AcDbLine
 10
10.61665967629335
 20
-1.084987458587447
 30
0.0
 11
10.61665967629335
 21
5.165012541412552
 31
0.0
  0
LINE
  5
49C
330
2
100
AcDbEntity
  8
AM_VIS
100
AcDbLine
 10
11.36665967629335
 20
-1.084987458587447
 30
0.0
 11
11.36665967629335
 21
5.165012541412552
 31
0.0
  0
LINE
  5
49F
330
2
100
AcDbEntity
  8
AM_VIS
100
AcDbLine
 10
10.82015967629333
 20
6.000691724443826
 30
0.0
 11
10.99165967629333
 21
6.000691724443826
 31
0.0
  0
LINE
  5
4A0
330
2
100
AcDbEntity
  8
AM_VIS
100
AcDbLine
 10
10.99165967629333
 20
6.000691724443826
 30
0.0
 11
11.16315967629333
 21
6.000691724443826
 31
0.0
  0
SPLINE
  5
4A1
330
2
100
AcDbEntity
  8
AM_VIS
100
AcDbSpline
210
0.0
220
0.0
230
1.0
 70
     8
 71
     3
 72
    12
 73
     8
 74
     0
 42
0.0000000001
 43
0.0000000001
 40
0.4217407258248198
 40
0.4217407258248198
 40
0.4217407258248198
 40
0.4217407258248198
 40
0.428569718413665
 40
0.428569718413665
 40
0.4787530642830522
 40
0.4787530642830522
 40
0.480830512687666
 40
0.480830512687666
 40
0.480830512687666
 40
0.480830512687666
 10
10.99165967629977
 20
6.280437358629222
 30
0.0
 10
10.98950911101358
 20
6.279262476741529
 30
0.0
 10
10.98729155948554
 20
6.278272552854159
 30
0.0
 10
10.96957172221383
 20
6.271426865769446
 30
0.0
 10
10.95206695261804
 20
6.270775010087324
 30
0.0
 10
10.9342526491742
 20
6.270693251758012
 30
0.0
 10
10.93354511584232
 20
6.270691724443822
 30
0.0
 10
10.93283834273004
 20
6.270691724443822
 30
0.0
  0
LINE
  5
4A2
330
2
100
AcDbEntity
  8
AM_VIS
100
AcDbLine
 10
10.99165967629333
 20
6.30069172444382
 30
0.0
 11
10.99165967629333
 21
6.28043735862893
 31
0.0
  0
ARC
  5
4A3
330
2
100
AcDbEntity
  8
AM_VIS
100
AcDbCircle
 10
10.78765967629337
 20
6.30069172444382
 30
0.0
 40
0.03
100
AcDbArc
 50
317.5410698814972
 51
0.0
  0
SPLINE
  5
4A4
330
2
100
AcDbEntity
  8
AM_VIS
100
AcDbSpline
210
0.0
220
0.0
230
1.0
 70
     8
 71
     3
 72
    12
 73
     8
 74
     0
 42
0.0000000001
 43
0.0000000001
 40
0.0481058974647739
 40
0.0481058974647739
 40
0.0481058974647739
 40
0.0481058974647739
 40
0.0501833458693873
 40
0.0501833458693873
 40
0.1003666917387745
 40
0.1003666917387745
 40
0.1072005649096604
 40
0.1072005649096604
 40
0.1072005649096604
 40
0.1072005649096604
 10
10.84648570881106
 20
6.270691724443822
 30
0.0
 10
10.84595372528543
 20
6.270691724443822
 30
0.0
 10
10.84542466280267
 20
6.270693251758012
 30
0.0
 10
10.83219141080897
 20
6.270775010087324
 30
0.0
 10
10.82134346629315
 20
6.271426865769446
 30
0.0
 10
10.81200814837891
 20
6.2782731388841
 30
0.0
 10
10.81086849020111
 20
6.27926389456534
 30
0.0
 10
10.80979251869686
 20
6.280439877935969
 30
0.0
  0
LINE
  5
4A5
330
2
100
AcDbEntity
  8
AM_VIS
100
AcDbLine
 10
10.99165967629329
 20
6.500691724443819
 30
0.0
 11
10.99165967629329
 21
6.30069172444382
 31
0.0
  0
LINE
  5
4A6
330
2
100
AcDbEntity
  8
AM_VIS
100
AcDbLine
 10
10.99165967629331
 20
6.500691724443819
 30
0.0
 11
10.81765967629337
 21
6.500691724443819
 31
0.0
  0
LINE
  5
4A7
330
2
100
AcDbEntity
  8
AM_VIS
100
AcDbLine
 10
10.81765967629337
 20
6.500691724443819
 30
0.0
 11
10.81765967629337
 21
6.30069172444382
 31
0.0
  0
SPLINE
  5
4A8
330
2
100
AcDbEntity
  8
AM_VIS
100
AcDbSpline
210
0.0
220
0.0
230
1.0
 70
     8
 71
     3
 72
    12
 73
     8
 74
     0
 42
0.0000000001
 43
0.0000000001
 40
0.4217358452427773
 40
0.4217358452427773
 40
0.4217358452427773
 40
0.4217358452427773
 40
0.4285697184136623
 40
0.4285697184136623
 40
0.4787530642830494
 40
0.4787530642830494
 40
0.4808305126876654
 40
0.4808305126876654
 40
0.4808305126876654
 40
0.4808305126876654
 10
11.17352683388981
 20
6.280439877935969
 30
0.0
 10
11.17245086238555
 20
6.27926389456534
 30
0.0
 10
11.17131120420775
 20
6.2782731388841
 30
0.0
 10
11.16197588629351
 20
6.271426865769446
 30
0.0
 10
11.15112794177769
 20
6.270775010087324
 30
0.0
 10
11.13789468978399
 20
6.270693251758012
 30
0.0
 10
11.13736562730123
 20
6.270691724443822
 30
0.0
 10
11.1368336437756
 20
6.270691724443822
 30
0.0
  0
ARC
  5
4A9
330
2
100
AcDbEntity
  8
AM_VIS
100
AcDbCircle
 10
11.19565967629329
 20
6.30069172444382
 30
0.0
 40
0.03
100
AcDbArc
 50
180.0
 51
222.4589301185079
  0
SPLINE
  5
4AA
330
2
100
AcDbEntity
  8
AM_VIS
100
AcDbSpline
210
0.0
220
0.0
230
1.0
 70
     8
 71
     3
 72
    10
 73
     6
 74
     0
 42
0.0000000001
 43
0.0000000001
 40
0.0916094854513507
 40
0.0916094854513507
 40
0.0916094854513507
 40
0.0916094854513507
 40
0.1003666917387748
 40
0.1003666917387748
 40
0.1071956843171176
 40
0.1071956843171176
 40
0.1071956843171176
 40
0.1071956843171176
 10
11.00649045913636
 20
6.274809432043849
 30
0.0
 10
11.0036519798603
 20
6.275513191103248
 30
0.0
 10
11.00087209374271
 20
6.27640105901208
 30
0.0
 10
10.99602779310438
 20
6.278272552852896
 30
0.0
 10
10.9938107684882
 20
6.279263442846238
 30
0.0
 10
10.99165967629737
 20
6.280437358624801
 30
0.0
  0
SPLINE
  5
4AB
330
2
100
AcDbEntity
  8
AM_VIS
100
AcDbSpline
210
0.0
220
0.0
230
1.0
 70
     8
 71
     3
 72
    10
 73
     6
 74
     0
 42
0.0000000001
 43
0.0000000001
 40
0.0481058974647697
 40
0.0481058974647697
 40
0.0481058974647697
 40
0.0481058974647697
 40
0.0501833458693874
 40
0.0501833458693874
 40
0.0916094854513507
 40
0.0916094854513507
 40
0.0916094854513507
 40
0.0916094854513507
 10
11.05048100985663
 20
6.270691724443819
 30
0.0
 10
11.0497741672646
 20
6.270691302721513
 30
0.0
 10
11.04906670341246
 20
6.270693251758011
 30
0.0
 10
11.03423749677573
 20
6.270761310055293
 30
0.0
 10
11.01984480471963
 20
6.271216822035532
 30
0.0
 10
11.00649045913636
 20
6.274809432043849
 30
0.0
  0
LINE
  5
4AC
330
2
100
AcDbEntity
  8
AM_VIS
100
AcDbLine
 10
11.1656596762933
 20
6.500691724443819
 30
0.0
 11
11.1656596762933
 21
6.30069172444382
 31
0.0
  0
LINE
  5
4AD
330
2
100
AcDbEntity
  8
AM_VIS
100
AcDbLine
 10
11.1656596762933
 20
6.500691724443819
 30
0.0
 11
10.99165967629329
 21
6.500691724443819
 31
0.0
  0
LINE
  5
4AE
330
2
100
AcDbEntity
  8
AM_VIS
100
AcDbLine
 10
10.93283834273004
 20
6.270691724443822
 30
0.0
 11
10.84648570881106
 21
6.270691724443822
 31
0.0
  0
SPLINE
  5
4AF
330
2
100
AcDbEntity
  8
AM_VIS
100
AcDbSpline
210
0.0
220
0.0
230
1.0
 70
     8
 71
     3
 72
    10
 73
     6
 74
     0
 42
0.0000000001
 43
0.0000000001
 40
0.4372965095329724
 40
0.4372965095329724
 40
0.4372965095329724
 40
0.4372965095329724
 40
0.4787268005813996
 40
0.4787268005813996
 40
0.4808173816459805
 40
0.4808173816459805
 40
0.4808173816459805
 40
0.4808173816459805
 10
10.80283347299195
 20
6.274812081985896
 30
0.0
 10
10.79700034438007
 20
6.271217837120598
 30
0.0
 10
10.79182986717465
 20
6.27076177114869
 30
0.0
 10
10.78801508545865
 20
6.270693270158507
 30
0.0
 10
10.7878357573795
 20
6.2706912974067
 30
0.0
 10
10.78765967629337
 20
6.270691724443819
 30
0.0
  0
SPLINE
  5
4B0
330
2
100
AcDbEntity
  8
AM_VIS
100
AcDbSpline
210
0.0
220
0.0
230
1.0
 70
     8
 71
     3
 72
    10
 73
     6
 74
     0
 42
0.0000000001
 43
0.0000000001
 40
0.4217148357922298
 40
0.4217148357922298
 40
0.4217148357922298
 40
0.4217148357922298
 40
0.4285458330708223
 40
0.4285458330708223
 40
0.4372965095329724
 40
0.4372965095329724
 40
0.4372965095329724
 40
0.4372965095329724
 10
10.80979251869654
 20
6.280439877931552
 30
0.0
 10
10.80871846129227
 20
6.279265421867449
 30
0.0
 10
10.80763798645167
 20
6.27827411291871
 30
0.0
 10
10.80534636819017
 20
6.27640301444341
 30
0.0
 10
10.80408140813592
 20
6.275515608747851
 30
0.0
 10
10.80283347299195
 20
6.274812081985896
 30
0.0
  0
LINE
  5
4B1
330
2
100
AcDbEntity
  8
AM_VIS
100
AcDbLine
 10
10.78765967629337
 20
6.270691724443822
 30
0.0
 11
10.78165967629333
 21
6.270691724443822
 31
0.0
  0
SPLINE
  5
4B8
330
2
100
AcDbEntity
  8
AM_VIS
100
AcDbSpline
210
0.0
220
0.0
230
1.0
 70
     8
 71
     3
 72
    10
 73
     6
 74
     0
 42
0.0000000001
 43
0.0000000001
 40
0.0916112585590037
 40
0.0916112585590037
 40
0.0916112585590037
 40
0.0916112585590037
 40
0.1003619350211546
 40
0.1003619350211546
 40
0.1071929322997449
 40
0.1071929322997449
 40
0.1071929322997449
 40
0.1071929322997449
 10
11.18048587959471
 20
6.274812081985894
 30
0.0
 10
11.17923794445074
 20
6.275515608747851
 30
0.0
 10
11.17797298439649
 20
6.27640301444341
 30
0.0
 10
11.17568136613499
 20
6.27827411291871
 30
0.0
 10
11.17460089129439
 20
6.279265421867449
 30
0.0
 10
11.17352683389013
 20
6.28043987793155
 30
0.0
  0
SPLINE
  5
4B9
330
2
100
AcDbEntity
  8
AM_VIS
100
AcDbSpline
210
0.0
220
0.0
230
1.0
 70
     8
 71
     3
 72
    10
 73
     6
 74
     0
 42
0.0000000001
 43
0.0000000001
 40
0.0480903864459959
 40
0.0480903864459959
 40
0.0480903864459959
 40
0.0480903864459959
 40
0.0501809675105773
 40
0.0501809675105773
 40
0.0916112585590037
 40
0.0916112585590037
 40
0.0916112585590037
 40
0.0916112585590037
 10
11.1956596762933
 20
6.270691724443819
 30
0.0
 10
11.19548359520716
 20
6.2706912974067
 30
0.0
 10
11.19530426712801
 20
6.270693270158507
 30
0.0
 10
11.19148948541201
 20
6.27076177114869
 30
0.0
 10
11.18631900820659
 20
6.271217837120598
 30
0.0
 10
11.18048587959471
 20
6.274812081985894
 30
0.0
  0
LINE
  5
4BA
330
2
100
AcDbEntity
  8
AM_VIS
100
AcDbLine
 10
11.20165967629333
 20
6.270691724443822
 30
0.0
 11
11.1956596762933
 21
6.270691724443822
 31
0.0
  0
LINE
  5
4BB
330
2
100
AcDbEntity
  8
AM_VIS
100
AcDbLine
 10
11.1368336437756
 20
6.270691724443822
 30
0.0
 11
11.05048100985663
 21
6.270691724443822
 31
0.0
  0
LINE
  5
4BC
330
2
100
AcDbEntity
  8
AM_VIS
100
AcDbLine
 10
11.20165967629333
 20
6.250691724443819
 30
0.0
 11
10.99165967629333
 21
6.250691724443819
 31
0.0
  0
LINE
  5
4BD
330
2
100
AcDbEntity
  8
AM_VIS
100
AcDbLine
 10
10.99165967629334
 20
6.250691724443819
 30
0.0
 11
10.78165967629334
 21
6.250691724443819
 31
0.0
  0
LINE
  5
4BE
330
2
100
AcDbEntity
  8
AM_VIS
100
AcDbLine
 10
10.82015967629333
 20
6.188191724443826
 30
0.0
 11
10.99165967629333
 21
6.188191724443826
 31
0.0
  0
LINE
  5
4BF
330
2
100
AcDbEntity
  8
AM_VIS
100
AcDbLine
 10
10.99165967629333
 20
6.188191724443826
 30
0.0
 11
11.16315967629333
 21
6.188191724443826
 31
0.0
  0
LINE
  5
4C0
330
2
100
AcDbEntity
  8
AM_VIS
100
AcDbLine
 10
10.83545967629333
 20
6.219441724443826
 30
0.0
 11
10.99165967629333
 21
6.219441724443826
 31
0.0
  0
LINE
  5
4C1
330
2
100
AcDbEntity
  8
AM_VIS
100
AcDbLine
 10
10.99165967629333
 20
6.219441724443826
 30
0.0
 11
11.14785967629334
 21
6.219441724443826
 31
0.0
  0
LINE
  5
4C4
330
2
100
AcDbEntity
  8
AM_VIS
100
AcDbLine
 10
10.92915967629336
 20
6.675679253012041
 30
0.0
 11
10.99165967629336
 21
6.675679253012041
 31
0.0
  0
LINE
  5
4C5
330
2
100
AcDbEntity
  8
AM_VIS
100
AcDbLine
 10
10.99165967629336
 20
6.675679253012041
 30
0.0
 11
11.05415967629336
 21
6.675679253012041
 31
0.0
  0
LINE
  5
4F6
330
2
100
AcDbEntity
  8
AM_VIS
100
AcDbLine
 10
12.11665967629335
 20
-1.08498745858745
 30
0.0
 11
12.11665967629335
 21
-0.3953960002490797
 31
0.0
  0
LINE
  5
4F9
330
2
100
AcDbEntity
  8
AM_VIS
100
AcDbLine
 10
12.86665967629335
 20
-1.08498745858745
 30
0.0
 11
12.86665967629335
 21
-0.3953960002490797
 31
0.0
  0
LINE
  5
503
330
2
100
AcDbEntity
  8
AM_VIS
100
AcDbLine
 10
11.21015967629335
 20
6.756943760535156
 30
0.0
 11
11.21015967629335
 21
6.52694376053515
 31
0.0
  0
LINE
  5
504
330
2
100
AcDbEntity
  8
AM_VIS
100
AcDbLine
 10
10.77315967629335
 20
6.756943760535156
 30
0.0
 11
10.77315967629335
 21
6.52694376053515
 31
0.0
  0
ARC
  5
505
330
2
100
AcDbEntity
  8
AM_VIS
100
AcDbCircle
 10
10.74315967629335
 20
6.52694376053515
 30
0.0
 40
0.03
100
AcDbArc
 50
270.0
 51
0.0000000000004071
  0
ARC
  5
506
330
2
100
AcDbEntity
  8
AM_VIS
100
AcDbCircle
 10
11.24015967629335
 20
6.52694376053515
 30
0.0
 40
0.03
100
AcDbArc
 50
180.0000000000004
 51
270.0
  0
LINE
  5
507
330
2
100
AcDbEntity
  8
AM_VIS
100
AcDbLine
 10
11.24165967629335
 20
6.496943760535151
 30
0.0
 11
11.24165967629335
 21
5.665012541412552
 31
0.0
  0
LINE
  5
509
330
2
100
AcDbEntity
  8
AM_VIS
100
AcDbLine
 10
10.74165967629335
 20
6.496943760535151
 30
0.0
 11
10.74165967629335
 21
5.665012541412552
 31
0.0
  0
LINE
  5
558
330
2
100
AcDbEntity
  8
AM_VIS
100
AcDbLine
 10
11.49165966629335
 20
6.113045647344792
 30
0.0
 11
11.4200773703338
 21
6.111729560289034
 31
0.0
  0
LINE
  5
55A
330
2
100
AcDbEntity
  8
AM_VIS
100
AcDbLine
 10
11.49165966629335
 20
6.476162352157047
 30
0.0
 11
11.4200773703338
 21
6.477478439212805
 31
0.0
  0
LINE
  5
561
330
2
100
AcDbEntity
  8
AM_VIS
100
AcDbLine
 10
11.20165967629333
 20
6.270691724443822
 30
0.0
 11
11.20165967629333
 21
6.250691724443819
 31
0.0
  0
LINE
  5
562
330
2
100
AcDbEntity
  8
AM_VIS
100
AcDbLine
 10
10.78165967629333
 20
6.270691724443822
 30
0.0
 11
10.78165967629333
 21
6.250691724443819
 31
0.0
  0
LINE
  5
563
330
2
100
AcDbEntity
  8
AM_VIS
100
AcDbLine
 10
11.16315967629333
 20
6.188191724443826
 30
0.0
 11
11.16315967629333
 21
6.000691724443826
 31
0.0
  0
LINE
  5
564
330
2
100
AcDbEntity
  8
AM_VIS
100
AcDbLine
 10
10.82015967629333
 20
6.188191724443826
 30
0.0
 11
10.82015967629333
 21
6.000691724443826
 31
0.0
  0
LINE
  5
565
330
2
100
AcDbEntity
  8
AM_VIS
100
AcDbLine
 10
11.14785967629334
 20
6.219441724443826
 30
0.0
 11
11.16315967629333
 21
6.188191724443826
 31
0.0
  0
LINE
  5
566
330
2
100
AcDbEntity
  8
AM_VIS
100
AcDbLine
 10
10.83545967629333
 20
6.219441724443826
 30
0.0
 11
10.82015967629333
 21
6.188191724443826
 31
0.0
  0
LINE
  5
567
330
2
100
AcDbEntity
  8
AM_VIS
100
AcDbLine
 10
10.83545967629333
 20
6.219441724443825
 30
0.0
 11
10.82015967629333
 21
6.250691724443819
 31
0.0
  0
LINE
  5
568
330
2
100
AcDbEntity
  8
AM_VIS
100
AcDbLine
 10
11.14785967629334
 20
6.219441724443825
 30
0.0
 11
11.16315967629333
 21
6.250691724443819
 31
0.0
  0
LINE
  5
56B
330
2
100
AcDbEntity
  8
AM_VIS
100
AcDbLine
 10
11.14103467629333
 20
6.000691724443826
 30
0.0
 11
11.14103467629333
 21
5.665012541412552
 31
0.0
  0
LINE
  5
56D
330
2
100
AcDbEntity
  8
AM_VIS
100
AcDbLine
 10
10.84228467629334
 20
6.000691724443826
 30
0.0
 11
10.84228467629334
 21
5.665012541412552
 31
0.0
  0
LINE
  5
56F
330
2
100
AcDbEntity
  8
AM_VIS
100
AcDbLine
 10
11.05415967629336
 20
6.675679253012041
 30
0.0
 11
11.05415967629336
 21
6.500691724443819
 31
0.0
  0
LINE
  5
571
330
2
100
AcDbEntity
  8
AM_VIS
100
AcDbLine
 10
10.92915967629336
 20
6.675679253012041
 30
0.0
 11
10.92915967629336
 21
6.500691724443819
 31
0.0
  0
LINE
  5
577
330
2
100
AcDbEntity
  8
AM_VIS
100
AcDbLine
 10
15.89933248714726
 20
7.855016935821311
 30
0.0
 11
15.89933248714726
 21
7.355016935821311
 31
0.0
  0
LINE
  5
578
330
2
100
AcDbEntity
  8
AM_VIS
100
AcDbLine
 10
15.89933248714726
 20
7.355016935821311
 30
0.0
 11
21.39933248714726
 21
7.355016935821311
 31
0.0
  0
LINE
  5
579
330
2
100
AcDbEntity
  8
AM_VIS
100
AcDbLine
 10
21.39933248714726
 20
7.855016935821311
 30
0.0
 11
21.39933248714726
 21
7.355016935821311
 31
0.0
  0
LINE
  5
57A
330
2
100
AcDbEntity
  8
AM_VIS
100
AcDbLine
 10
21.39933248714726
 20
7.855016935821311
 30
0.0
 11
15.89933248714726
 21
7.855016935821311
 31
0.0
  0
LINE
  5
57D
330
2
100
AcDbEntity
  8
AM_VIS
100
AcDbLine
 10
15.64933248714726
 20
-1.084987458587449
 30
0.0
 11
15.64933248714726
 21
-1.834987458587449
 31
0.0
  0
LINE
  5
57E
330
2
100
AcDbEntity
  8
AM_VIS
100
AcDbLine
 10
15.64933248714726
 20
-1.834987458587449
 30
0.0
 11
21.64933248714727
 21
-1.834987458587449
 31
0.0
  0
LINE
  5
57F
330
2
100
AcDbEntity
  8
AM_VIS
100
AcDbLine
 10
21.64933248714727
 20
-1.084987458587449
 30
0.0
 11
21.64933248714727
 21
-1.834987458587449
 31
0.0
  0
LINE
  5
580
330
2
100
AcDbEntity
  8
AM_VIS
100
AcDbLine
 10
21.64933248714727
 20
-1.084987458587449
 30
0.0
 11
15.64933248714726
 21
-1.084987458587449
 31
0.0
  0
CIRCLE
  5
587
330
2
100
AcDbEntity
  8
AM_VIS
100
AcDbCircle
 10
17.64933248714727
 20
2.85460399975092
 30
0.0
 40
0.1005
  0
CIRCLE
  5
588
330
2
100
AcDbEntity
  8
AM_VIS
100
AcDbCircle
 10
19.64933248714726
 20
2.854603999750921
 30
0.0
 40
0.1005
  0
CIRCLE
  5
589
330
2
100
AcDbEntity
  8
AM_VIS
100
AcDbCircle
 10
17.64933248714726
 20
6.854603999750921
 30
0.0
 40
0.1005
  0
CIRCLE
  5
58A
330
2
100
AcDbEntity
  8
AM_VIS
100
AcDbCircle
 10
19.64933248714726
 20
6.854603999750921
 30
0.0
 40
0.1005
  0
LINE
  5
58D
330
2
100
AcDbEntity
  8
AM_VIS
100
AcDbLine
 10
16.14933248714726
 20
-0.3953960002490797
 30
0.0
 11
21.14933248714727
 21
-0.3953960002490788
 31
0.0
  0
LINE
  5
58E
330
2
100
AcDbEntity
  8
AM_VIS
100
AcDbLine
 10
21.14933248714727
 20
-0.3953960002490779
 30
0.0
 11
21.14933248714727
 21
7.354603999750922
 31
0.0
  0
LINE
  5
58F
330
2
100
AcDbEntity
  8
AM_VIS
100
AcDbLine
 10
21.14933248714726
 20
7.354603999750922
 30
0.0
 11
16.14933248714726
 21
7.354603999750921
 31
0.0
  0
LINE
  5
590
330
2
100
AcDbEntity
  8
AM_VIS
100
AcDbLine
 10
16.14933248714726
 20
7.354603999750921
 30
0.0
 11
16.14933248714726
 21
-0.3953960002490797
 31
0.0
  0
LINE
  5
5A9
330
2
100
AcDbEntity
  8
AM_VIS
100
AcDbLine
 10
21.14933248714726
 20
-0.3953960002490779
 30
0.0
 11
21.14933248714726
 21
-1.084987458587447
 31
0.0
  0
LINE
  5
61E
330
2
100
AcDbEntity
  8
AM_VIS
100
AcDbLine
 10
16.14933248714726
 20
-1.084987458587447
 30
0.0
 11
16.14933248714726
 21
-0.3953960002490797
 31
0.0
  0
LINE
  5
669
330
2
100
AcDbEntity
  8
AM_VIS
100
AcDbLine
 10
18.49308248714726
 20
-1.084987458587449
 30
0.0
 11
18.49308248714726
 21
-0.3953960002490779
 31
0.0
  0
LINE
  5
66C
330
2
100
AcDbEntity
  8
AM_VIS
100
AcDbLine
 10
18.80558248714726
 20
-1.084987458587448
 30
0.0
 11
18.80558248714726
 21
-0.3953960002490779
 31
0.0
  0
LINE
  5
66F
330
2
100
AcDbEntity
  8
AM_VIS
100
AcDbLine
 10
20.02433248714726
 20
-1.084987458587449
 30
0.0
 11
20.02433248714726
 21
-0.3953960002490779
 31
0.0
  0
LINE
  5
672
330
2
100
AcDbEntity
  8
AM_VIS
100
AcDbLine
 10
20.77433248714727
 20
-1.084987458587449
 30
0.0
 11
20.77433248714727
 21
-0.3953960002490779
 31
0.0
  0
LINE
  5
675
330
2
100
AcDbEntity
  8
AM_VIS
100
AcDbLine
 10
16.52433248714727
 20
-1.084987458587449
 30
0.0
 11
16.52433248714727
 21
-0.3953960002490788
 31
0.0
  0
LINE
  5
678
330
2
100
AcDbEntity
  8
AM_VIS
100
AcDbLine
 10
17.27433248714727
 20
-1.084987458587449
 30
0.0
 11
17.27433248714727
 21
-0.3953960002490788
 31
0.0
  0
ENDSEC
  0
SECTION
  2
OBJECTS
  0
DICTIONARY
  5
9
330
0
100
AcDbDictionary
  3
ACAD_GROUP
350
23
  3
ACAD_LAYOUT
350
D
  3
ACAD_MLINESTYLE
350
24
  3
ACAD_PLOTSETTINGS
350
25
  3
ACAD_PLOTSTYLENAME
350
8
  3
ACDBHEADERROUNDTRIPXREC
350
72E
  0
DICTIONARY
  5
3
330
2
100
AcDbDictionary
280
     1
  3
ACAD_LAYOUTSELFREF
360
74F
  0
DICTIONARY
  5
F
330
E
100
AcDbDictionary
280
     1
  3
ACAD_LAYOUTSELFREF
360
750
  0
DICTIONARY
  5
23
102
{ACAD_REACTORS
330
9
102
}
330
9
100
AcDbDictionary
  0
DICTIONARY
  5
D
102
{ACAD_REACTORS
330
9
102
}
330
9
100
AcDbDictionary
  0
DICTIONARY
  5
24
102
{ACAD_REACTORS
330
9
102
}
330
9
100
AcDbDictionary
  3
STANDARD
350
28
  0
DICTIONARY
  5
25
102
{ACAD_REACTORS
330
9
102
}
330
9
100
AcDbDictionary
  0
ACDBDICTIONARYWDFLT
  5
8
102
{ACAD_REACTORS
330
9
102
}
330
9
100
AcDbDictionary
281
     1
  3
Normal
350
7
100
AcDbDictionaryWithDefault
340
7
  0
DICTIONARY
  5
72E
102
{ACAD_REACTORS
330
9
102
}
330
9
100
AcDbDictionary
  3
TSTACKALIGN
350
72F
  3
TSTACKSIZE
350
730
  3
HYPERLINKBASE
350
731
  3
STYLESHEET
350
732
  3
LAYOUTDICT
350
733
  3
PLOTSETDICT
350
734
  3
PLOTSTYLNAMDICT
350
735
  3
LWETCUNION
350
736
  3
INSUNITS
350
737
  3
CEPSNTYPE
350
738
  3
FINGERPRINTGUID
350
739
  3
VERSIONGUID
350
73A
  3
PSVPSCALE
350
73B
  3
DIMSTYLEDATA
350
73C
  3
PUCSORTHOREF
350
73D
  3
PUCSORTHOVIEW
350
73E
  3
PUCSBASE
350
73F
  3
PUCSORGTOP
350
740
  3
PUCSORGBOTTOM
350
741
  3
PUCSORGLEFT
350
742
  3
PUCSORGRIGHT
350
743
  3
PUCSORGFRONT
350
744
  3
PUCSORGBACK
350
745
  3
UCSORTHOREF
350
746
  3
UCSORTHOVIEW
350
747
  3
UCSBASE
350
748
  3
UCSORGTOP
350
749
  3
UCSORGBOTTOM
350
74A
  3
UCSORGLEFT
350
74B
  3
UCSORGRIGHT
350
74C
  3
UCSORGFRONT
350
74D
  3
UCSORGBACK
350
74E
  0
XRECORD
  5
74F
102
{ACAD_REACTORS
330
3
102
}
330
3
100
AcDbXrecord
340
2
  0
XRECORD
  5
750
102
{ACAD_REACTORS
330
F
102
}
330
F
100
AcDbXrecord
340
E
  0
MLINESTYLE
  5
28
102
{ACAD_REACTORS
330
24
102
}
330
24
100
AcDbMlineStyle
  2
STANDARD
 70
     0
  3

 62
     0
 51
90.0
 52
90.0
 71
     2
 49
0.5
 62
   256
  6
BYLAYER
 49
-0.5
 62
   256
  6
BYLAYER
  0
ACDBPLACEHOLDER
  5
7
102
{ACAD_REACTORS
330
8
102
}
330
8
100
AcDbPlaceHolder
280
     0
  0
XRECORD
  5
72F
102
{ACAD_REACTORS
330
72E
102
}
330
72E
100
AcDbXrecord
 90
        1
  0
XRECORD
  5
730
102
{ACAD_REACTORS
330
72E
102
}
330
72E
100
AcDbXrecord
 90
       70
  0
XRECORD
  5
731
102
{ACAD_REACTORS
330
72E
102
}
330
72E
100
AcDbXrecord
  1

  0
XRECORD
  5
732
102
{ACAD_REACTORS
330
72E
102
}
330
72E
100
AcDbXrecord
  1

  0
XRECORD
  5
733
102
{ACAD_REACTORS
330
72E
102
}
330
72E
100
AcDbXrecord
340
D
  0
XRECORD
  5
734
102
{ACAD_REACTORS
330
72E
102
}
330
72E
100
AcDbXrecord
340
25
  0
XRECORD
  5
735
102
{ACAD_REACTORS
330
72E
102
}
330
72E
100
AcDbXrecord
340
8
  0
XRECORD
  5
736
102
{ACAD_REACTORS
330
72E
102
}
330
72E
100
AcDbXrecord
 90
     2589
  0
XRECORD
  5
737
102
{ACAD_REACTORS
330
72E
102
}
330
72E
100
AcDbXrecord
 90
        0
  0
XRECORD
  5
738
102
{ACAD_REACTORS
330
72E
102
}
330
72E
100
AcDbXrecord
 90
        0
  0
XRECORD
  5
739
102
{ACAD_REACTORS
330
72E
102
}
330
72E
100
AcDbXrecord
  1
{E70C7869-0FAD-11D4-A1EF-00A0CC5F9453}
  0
XRECORD
  5
73A
102
{ACAD_REACTORS
330
72E
102
}
330
72E
100
AcDbXrecord
  1
{0069763D-69D5-41C9-BBD5-7F6CF4A2CC64}
  0
XRECORD
  5
73B
102
{ACAD_REACTORS
330
72E
102
}
330
72E
100
AcDbXrecord
 40
0.0
  0
XRECORD
  5
73C
102
{ACAD_REACTORS
330
72E
102
}
330
72E
100
AcDbXrecord
1000
DSTYLE
1002
{
1070
    79
 70
     1
1002
}
  0
XRECORD
  5
73D
102
{ACAD_REACTORS
330
72E
102
}
330
72E
100
AcDbXrecord
340
0
  0
XRECORD
  5
73E
102
{ACAD_REACTORS
330
72E
102
}
330
72E
100
AcDbXrecord
 70
     0
  0
XRECORD
  5
73F
102
{ACAD_REACTORS
330
72E
102
}
330
72E
100
AcDbXrecord
340
0
  0
XRECORD
  5
740
102
{ACAD_REACTORS
330
72E
102
}
330
72E
100
AcDbXrecord
 10
0.0
 20
0.0
 30
0.0
  0
XRECORD
  5
741
102
{ACAD_REACTORS
330
72E
102
}
330
72E
100
AcDbXrecord
 10
0.0
 20
0.0
 30
0.0
  0
XRECORD
  5
742
102
{ACAD_REACTORS
330
72E
102
}
330
72E
100
AcDbXrecord
 10
0.0
 20
0.0
 30
0.0
  0
XRECORD
  5
743
102
{ACAD_REACTORS
330
72E
102
}
330
72E
100
AcDbXrecord
 10
0.0
 20
0.0
 30
0.0
  0
XRECORD
  5
744
102
{ACAD_REACTORS
330
72E
102
}
330
72E
100
AcDbXrecord
 10
0.0
 20
0.0
 30
0.0
  0
XRECORD
  5
745
102
{ACAD_REACTORS
330
72E
102
}
330
72E
100
AcDbXrecord
 10
0.0
 20
0.0
 30
0.0
  0
XRECORD
  5
746
102
{ACAD_REACTORS
330
72E
102
}
330
72E
100
AcDbXrecord
340
0
  0
XRECORD
  5
747
102
{ACAD_REACTORS
330
72E
102
}
330
72E
100
AcDbXrecord
 70
     0
  0
XRECORD
  5
748
102
{ACAD_REACTORS
330
72E
102
}
330
72E
100
AcDbXrecord
340
0
  0
XRECORD
  5
749
102
{ACAD_REACTORS
330
72E
102
}
330
72E
100
AcDbXrecord
 10
0.0
 20
0.0
 30
0.0
  0
XRECORD
  5
74A
102
{ACAD_REACTORS
330
72E
102
}
330
72E
100
AcDbXrecord
 10
0.0
 20
0.0
 30
0.0
  0
XRECORD
  5
74B
102
{ACAD_REACTORS
330
72E
102
}
330
72E
100
AcDbXrecord
 10
0.0
 20
0.0
 30
0.0
  0
XRECORD
  5
74C
102
{ACAD_REACTORS
330
72E
102
}
330
72E
100
AcDbXrecord
 10
0.0
 20
0.0
 30
0.0
  0
XRECORD
  5
74D
102
{ACAD_REACTORS
330
72E
102
}
330
72E
100
AcDbXrecord
 10
0.0
 20
0.0
 30
0.0
  0
XRECORD
  5
74E
102
{ACAD_REACTORS
330
72E
102
}
330
72E
100
AcDbXrecord
 10
0.0
 20
0.0
 30
0.0
  0
ENDSEC
  0
EOF
